Here Comes The Sun (easy) (Intro) Uke tab by The Beatles

Ukulele Tab without chords.

Add tab to your SongBook
Tablature / ChordsFont size: A- A A+

Don't know how to read a tab or a chord ? Check out these uke lessons:

Detailed guide to strumming and picking
How to read uke tabs
Reading chord diagrams

(In the shape of G G)

A|-----2---0-2---------2-0-------------0---------------0---|
E|---3---3-------3---3-----3---3-3---3---3---0-2-0-2-3---3-|
C|-2---------------2---------2-----4-----------------------|
G|---------------------------------------------------------|

A|-----2---0-2---------2-0-----------2-0-------|
E|---3---3-------3---3-----3---3-3--------3-2--|
C|-2---------------2---------2-----4-----------|
G|---------------------------------------------|

A|----2-0--2-----2---0-2-------2-0-2-------0---------2-0---------0-----0-----0-----0-
E|--3---------3-----3-----3---3-------3---3---3---3-------3-3---3-----3-----3-----3--
C|2------------2-----------4-----------4-------4---4---------4-----2-----0-----2-----
G|-----------------------------------------------------------------------------------

A|------------2---0-2-----------0-|
E|-3-2-----3----3------0-2-0-2-3--|
C|-----4-2------------------------|
G|--------------------------------|


(Repeat as many times as you want) Have fun! :)

 

Tab comments (0)
No comment yet :(
Need help, a tip to share, or simply want to talk about this song? Start the discussion!

You must be logged in to join the discussion
or Register

 

About this song

No information about this song.