Here Comes The Sun (best Version) (Riff) Uke tab by The Beatles

Ukulele Tab without chords.

Add tab to your SongBook
Tablature / ChordsFont size: A- A A+

Don't know how to read a tab or a chord ? Check out these uke lessons:

Detailed guide to strumming and picking
How to read uke tabs
Reading chord diagrams

-2---0--2------2--0------0---------2-0----0----0-0-0-0--0-0-
-3--3----------3-------3------0----------3-----2-0-2-3--2-0-
-2-------------2--------------0----------------0-0-0-0--0-0-
----------0-------------------0----------------2-2-2-2--2-2-

-2---0--2------2--0------0---------2-0----0----0--0-0--0-0-
-3--3----------3-------3------0----------3-----2--2-2--2-2-
-2-------------2--------------0----------------0--0-0--0-0-
----------0-------------------0----------------2--2-2--2-2-

-2--2-0--2-------2--0-2-------2-0--2-------0-0-0-0--0-0-
-3--3-------3----3-3-------0--0-------3----3-3-3-3--3-3-
-2--2------------2---------0--0------------2-2-2-2--2-2-
---------------------------0--0------------1-1-1-1--1-1-

-2--2-0--2-------2------------0------0------0------0-----------2-
-3--3-------3----3----------3------3------3------3----3-2-0----3-
-2--2------------2--------4------2------0------2------------2--2-
---------------------------------------------------------------0-

 

Tab comments (3)
You must be logged in to join the discussion
or Register

 

kmurph55 avatar
if you put a capo on the second fret it sounds even better
24 Dec 2012
ballinbadger avatar
best one by far.
19 May 2012
Big_ditka avatar
flag for IT(ISO2) (Rome)
Best version I've seen so far. Nice work
14 Sep 2011
About this song

No information about this song.