Day Tripper Uke tab by The Beatles

Ukulele Tab without chords.

10/10
PrintAdd tab to your SongBook

Tablature / Chords (Full Song)

Font size: A- A A+

Artist: 
Album: 
Year:  2000
Key: unknownTablature (no chords)
# This is a extended version of the tab I had posted previously. Hope you enjoy!
# h - hammer

---------3-----5-------
-------3-----3---3-----
-0-3-4----------------- x4
-----------3-------3-5-
# Then...
---------5-----7-------
-------5-----5---5-----
-2-5-6----------------- x1
-----------5-------5-7-
# Finish with...
---------3-----5---------
-------3-----3---3-------
-0-3-4-------------3h4-0-
-----------3-------------

⇢ Not happy with this tab? View 6 other version(s)

Uke tab by , 10 Nov 2010

Tab comments (0)

No comment yet :(
Need help, a tip to share, or simply want to talk about this song? Start the discussion!

Something to say?
Share your strumming patterns, chords or tips to play this tab! ;)

Top Tabs & Chords by The Beatles, don't miss these songs!

About this song: Day Tripper

No information about this song.

Did you cover Day Tripper on your Ukulele? Share your work!
Submit a cover