Blackbird Uke tab by The Beatles

Ukulele Tab without chords.

Add tab to your SongBook
Tablature / ChordsFont size: A- A A+

Don't know how to read a tab or a chord ? Check out these uke lessons:

Detailed guide to strumming and picking
How to read uke tabs
Reading chord diagrams

a--2---0---2---------------------------2---0---2-----------------------------
E--3-----------3----3----3----3----3-----------3----3----3----3------
d----------2-------------------------------2-------------------------
g----0-5-0---0-16-00-16-0--16-00-16--------5-0---0-16-0--1600--16-0--16-00---

a----------2--------4----3-----2----------------2---0---0----2-----------
E------3-------5----------------3------------------------3-----------
d--0---1---2---3---4---3----2---1---0---0---2------------------------
g--9-------11-------1200-1200--11-------900-800--00-600-500--------------

a----------2---0---3---2------2----0---2---------------------------------
E----------------------3------3------------3----3----3----3----------
d--0---0---2---------------------------2-----------------------------
g--90--80---0--600--00----------0--5-0---0-16--0016--0-16--0016----------

a----------2--------4----3-----2------------------2---0---0---0---2------
E------3-------5----------------3-----------------------------3------
d--0---1---2---3---4---3----2---1-----0---0---2----------------------
g--9-------11-------12-0012-00-11---------900-800--00?6?005--00-----------
a--------------------2-----7-------------------6-2-5-0-4-0-3---2-----
E--5-----3------------------------5----3---1-----------------3-------
d---5---4----2---0-------0-------5---4---2---0-----------------------
g----0---0---0---0---00------------0---0---0---0---0--00--00---------

a--2---0---2-------------------------------------------------------------
E--3-----------3----3----3----3--------------------------------------
d----------2---------------------------------------------------------
g----0-5-0---0-16-00-16-0--16-00-16--------------------------------------

a----------2--------4---------2----------------2---0---3-------2--------
E------3-------5----------------3---------------------------3--------
d--0---1---2---3---4---3----2---1---0---0---2------------------------
g--9-------11-------12--00--0011-------9-008-00--006-00--00-------------

a-------4----2--------2-----------------4----2--------2---0---03----2----
E--5-----------------------------5------------------------------3----
d---5---4---2---0---2-----0-------5---4---2---0---2------------------
g----0--120--100--80---00---9--------0--120--100--80---0--600--00--------

a--2---0---2-------------------------------------------------------------
E--3-----------3----3----3----3--------------------------------------
d----------2---------------------------------------------------------
g----0-5-0---0-16-00-16-0--16-00-16--------------------------------------

 

Tab comments (1)
You must be logged in to join the discussion
or Register

 

ninja.hatori avatar
wrong artist
21 Jun 2012
About this song

No information about this song.