Blackbird (100% Accurate) Uke tab by The Beatles

Ukulele Tab without chords.

Add tab to your SongBook
Tablature / ChordsFont size: A- A A+

Don't know how to read a tab or a chord ? Check out these uke lessons:

Detailed guide to strumming and picking
How to read uke tabs
Reading chord diagrams

C C    Dm7 Dm7  Am7 Am7    
# -3----3----3----3s7---------7--7---------7-
---0----1----3--4s8--8----8-------8----8--- X2
-0----2----4-----------0-------0----0------
-------------------------------------------

-------------------5--------------------------------
-1-----2-----3--------4---5---------5---4----------4
---0-----0-----2--------------4---4---------4----4--
-2-----2-----4-----4------5-----5-------5-----5-----...

------3----3--------3---3---------3
-3------2----1------------1--------
---2--4--------0------------0------
...-4---------2-------2----1-------1--

-3--------3---3--------3---3--------3---3--------3-
---0----0-------2----2-------1----1-------0----0---
-0---0--------2---2--------0---0--------0---0------
---------------------------------------------------

-3----3-----3--------3---3--------3---3--------3---3
---0----1-----2----2-------1----1-------0----0-----0
------------2---2--------0---0--------0---0--------0
-0----2--------------------------------------------0

GOOD LUCK

 

Tab comments (2)
You must be logged in to join the discussion
or Register

 

rainberry_ avatar
it's kind of hard, but fun and it sound great!
02 Apr 2020
Vee182 avatar
flag for AU(ISO2) (Melbourne)
I like it, a tad difficult but it's not meant to be easy. Good work :)
16 Sep 2011
About this song

No information about this song.