Tetris Uke tab by Tetris

1 Chords used in the song :

Add tab to your SongBook

View these chords for the Baritone

Transpose chords:
Tablature / ChordsFont size: A- A A+

Don't know how to read a tab or a chord ? Check out these uke lessons:

How to read uke tabs
Reading chord diagrams


A|0-----------------0--------------0----------|
E|--0-1-3-1-0-----1---3-1-0--0-1-3---1--------|
C|------------2-2----------------------2--2---|
G|--------------------------------------------|



A|--1-5-3-1-0---0--------------0----------|
E|3-----------1---3-1-0--0-1-3---1--------|
C|---------------------------------2--2---|
G|----------------------------------------|

 

Tab comments (1)
You must be logged in to join the discussion
or Register

 

sirmustache avatar
Don't know if it's correct but I believe it sounds better
playing the second bit like this:

A|----1-5-3-1-0-0--0--------------0-----------|
E|3-3-------------1---3-1-0--0-1-3---1--------|
C|-------------------------------------2--2---|
G|--------------------------------------------|
09 Mar 2019
About this song

No information about this song.