You Belong To Me Uke tab by Steve Martin

9 Chords used in the song: G, G7, C, Cm6, D, Cm, E7, A, Am

9/10
PrintAdd tab to your SongBook

Tablature / Chords (Full Song)

Font size: A- A A+

Artist: 
Album:  unknown
Difficulty: 
3.61
(Intermediate)
Key: unknownChords and Tablature
RIFF 1

2---2---2---2---3---2-----
3------------------------3
2-------------------------
0-------------------------

RIFF 2

2--2--------------0---2---0-------------0---2---0-----------0---2---0------2-2-2----2--0--5--2
3----3-----1----3-------------3---0---3-------------3-----3-------------3---3-3-3--3-------2---
2------2---2-----------------------0--------------------3---------------------2-2-2-----------2---
-------------------------------------------------------------------------------------------------2---

2---2---2---2---3---2-----2---2---2---2---3---2-------
3----------------------- 3--3------------------------3
2---------------------------2-------------------------
0---------------------------0-------------------------



RIFF 1 X2


G G
I know (I know)
G7 G7 C C Cm6 Cm6
You belong to somebody new
G G D D RIFF 1
But Tonight you belong to me
G G G7 G7
Although (although) we're apart

C C Cm6 Cm6
Your part of my heart

G G D D RIFF 1
And tonight you belong to me

Cm Cm
Way down by the stream

Cm Cm
How sweet it will seem

G G E7 E7
Once more just to dream


A A D D
In the moonlight

G G
My honey I know (I know)

G7 G7 C C Cm6 Cm6
With the dawn that you will be gone

G G D D RIFF 1
But tonight you belong to me



RIFF 2 (solo)



Cm Cm
way down along the stream


Cm Cm
How sweet it will seem


G G E7 E7
Once more just to dream


Am Am D D
In the silvery moonlight

G G
My honey, I know (I know)

G7 G7 C C Cm6 Cm6
With the dawn that you will be gone


G G D D
But tonight you belong

G G D D
But tonight you belong


G G D D
But tonight you belong to me


2------2---2----0---
3--------3---3-----3
2---2---------------

Just to little old me

Uke tab by , 25 Feb 2009

Tab comments (1)

Something to say?
Share your strumming patterns, chords or tips to play this tab! ;)
Filter by:
Uk'nK avatar
flag for US(ISO2) (New York)
The title of this song is "Tonight, You Belong to Me"
09 Jun 2012
Comment

Top Tabs & Chords by Steve Martin, don't miss these songs!

About this song: You Belong To Me

No information about this song.

Did you cover You Belong To Me on your Ukulele? Share your work!
Submit a cover