Hallelujah Uke tab by Rufus Wainwright

7 Chords used in the song: C, Am, F, G, Am+, F+, G5

PrintAdd tab to your SongBook
Tablature / ChordsFont size: A- A A+

Don't know how to read a tab or a chord ? Check out these uke lessons:

Detailed guide to strumming and picking
How to read uke tabs
Reading chord diagrams

________________________________________________________________________
________________________________________________________________________
________________________________________________________________________

00[0]0 C Am
I heard there was a secret chord

00[0]0 C Am
That David played and it pleased the Lord

[0]000 F G C G
But you don't really care for music, do you?

00[0]0 C [0]000 F G
It goes like this, the fourth, the fifth,

[0]000 Am+C Am F+C [0235]
the minor fall, the major lift,

000[3] [0235] [5457] [0235] Am+C
the baffled king com--posing Hal--lelu----jah

00[0]0 00[3]0 F
Hal- le- lujah

[2]000 [0]000 Am
Hal- le- lujah

00[0]0 00[3]0 F
Hal- le- lujah

F G Am+C 00[1]0 00[0]0 G 000[3] 000[2] C
Hal- le- lu- - - - - - jah


________________________________________________________________________
________________________________________________________________________
________________________________________________________________________


A||----3-3-3-3-0-0-0---3-3-3-3-3-0-0-0---0-0-0-0-2-2-2-2-3-3-2-2-2-2-2--|
E||o-0-0-0-0-0-0-0-0-0-0-0-0-0-0-0-0-0---1-1-1-1-3-3-3-3-0-0-3-3-3-3-3--|
C||o---0-0-0-0-0-0-0---0-0-0-0-0-0-0-0---0-0-0-0-2-2-2-2-0-0-2-2-2-2-2--|
G||----0-0-0-0-2-2-2---0-0-0-0-0-2-2-2-0-2-2-2-2-0-0-0-0-0-0-0-0-0-0-0--|
C C Am Am C C Am Am F F G G C C G G


A||---3-3-3---0-0-2---3-3-3--0---3-3--5-3-5-5-5-5-7-7-7-5-5-3--|
E||-0-0-0-0---1-1-3---0-0-0--0---1-1--3---3-3-3-3-5-5-5-3-3-0--|
C||---0-0-0---0-0-2---0-0-0--0---0-0--2---2-2-2-2-4-4-4-2-2-0--|
G||---0-0-0-0-2-2-0-0-2-2-2--2---2-2--0---0-0-0-0-5-5-5-0-0-2--|
C C F F G G Am+ Am+C C Am Am F+ F+C C G5 G5 G5 G5 (?) G5 G5 Am+ Am+C C


A||-----0-0-----0-0-----0-0---0-2-3-------2-3-2-3---||
E||-0-3-1-1-----0-0-0-3-1-1---1-3-0---1-0-3-----0--o||
C||-----0-0-----0-0-----0-0---0-2-0-------2-----0--o||
G||-----2-2-2-0-2-2-----2-2---2-0-2-------0-----0---||
F F Am Am F F G G Am+ Am+C C G G C C

________________________________________________________________________
________________________________________________________________________
________________________________________________________________________

 

Tab comments (1)
You must be logged in to join the discussion
or Register

 

Riddick avatar
flag for US(ISO2) (Furya)
I wish there was some strum direction in there so that I can get the rhythm down, but i can see it sounding quite beautiful.
04 Sep 2010
About this song

This song, written by Leonard Cohen was adapted for John Cale. It differs from the original and has extra verses. In 1994, Jeff Buckley covered "the Cale version" on his Grace album. Although the John Cale performance of