Prayer Of The Refugee (standard Tuning) Uke tab by Rise Against

9 Chords used in the song: Ebm, B, F#, C#, Abm, E, Bsus4, F#5, C#5

4.7/10
PrintAdd tab to your SongBook

Tablature / Chords (Full Song)

Font size: A- A A+

Artist: 
Album:  unknown
Difficulty: 
8.17
(Confirmed)
Key: unknownChords and Tablature
(Intro)
A|------------------------------------------------|
E|-2---1-1---2-2---1-1---2-2---1-1---2-2---1-1----|
C|-3---3-3---3-3---3-3---3-3---3-3---3-3---3-3----|
G|------------------------------------------------|

(Verse)
Ebm Ebm B B F# F# C# C#
Ebm Ebm B B F# F# Ebm Ebm
Ebm Ebm B B C# C# Ebm Ebm
Ebm Ebm B B C# C# Ebm Ebm

(Chorus)
Ebm Ebm F# F# C# C# B B
Ebm Ebm F# F# C# C# B B

(Intro)

(Verse)

(Chorus)

(Bridge)
Abm Abm F# F#
Abm Abm F# F#
Abm Abm F# F#
E E Ebm Ebm Bsus4 Bsus4
F#5 F#5 C#5 C#5

(Solo)
A|-6-6-6-6-6-6-6-6-8-9-6-6-6-6-6-6-6-6-8-9--------|
E|------------------------------------------------|
C|-3-3-3-3-3-3-3-3-5-6-3-3-3-3-3-3-3-3-5-6--------|
G|------------------------------------------------|

A|-6-6-6-6-6-6-6-6-8-9-4-4-4-4-4-4-4-4-4-4--------|
E|------------------------------------------------|
C|-3-3-3-3-3-3-3-3-5-6-1-1-1-1-1-1-1-1-1-1--------|
G|------------------------------------------------|

A|-13---9---13-14-13-11-13---9---13-14-13-11------|
E|------------------------------------------------|
C|-10---6---10-11-10-8--10---6---10-11-10-8-------|
G|------------------------------------------------|

A|-11--11--11-11-11-9-13-13-13-13-----------------|
E|------------------------------------------------|
C|-8---8---8--8--8--6-10-10-10-10-----------------|
G|------------------------------------------------|

(Intro)

(Chorus)

Uke tab by , 02 Jun 2012

Tab comments (7)

Something to say?
Share your strumming patterns, chords or tips to play this tab! ;)
Filter by:
MiriumStudium avatar
flag for ZA(ISO2) (Johannesburg)
First of all, Thank You BeZo for such Rad tabs!! You rock on the Ukulele. :) Secondly, here is a link to Ukulele Power Chords. It has the F#5 and the C#5 in the chart http://ukulelehunt.com/2008/07/16/ukulele-power-chords/
20 Sep 2012
Correction
awerts avatar
It's good, but Abm, Bsus4, F#5, and C#5 are not in the chords shown at the top.
01 Sep 2012
Correction
BeZo avatar
I changed it from G#m to Abm, but it didn't make any difference on the tab. They are the exact same chord anyways. (G# and Ab are the same note, really)
22 Jun 2012
Correction
BeZo avatar
I listed all of the chords used in the proper section, but the site did not post the fingering positions of the chords in the bridge. It is right, though. If you need more help, see the chord chart section to see how to play the chords.
22 Jun 2012
Comment
jamie_day3861 avatar
flag for CA(ISO2) (Saanichton)
Only reasons i rejected it is because you forgot to add where you put your fingers for some of the chords such as E, G#m and Bsus4. Perhaps for some of theses chords it didn't put them as Bsus4 is a little peculiar but if not just make sure to put them in next time. Also i may be mistaken but I thought power chords like F#5 or C#5 didn't exist with uke but i could be wrong about this. Just needs some tweaking other than that it was a REALLY well done ! :D
19 Jun 2012
Correction
BeZo avatar
I fixed it, so it is more clear now. I'll tab out the solo later. I've been playing that with it too.
13 Jun 2012
Comment
jaimeebenson avatar
flag for US(ISO2) (Orfordville)
33? my uke only has 14 frets!
08 Jun 2012
Comment

Top Tabs & Chords by Rise Against, don't miss these songs!

About this song: Prayer Of The Refugee (standard Tuning)

No information about this song.

Did you cover Prayer Of The Refugee (standard Tuning) on your Ukulele? Share your work!
Submit a cover