Swing Life Away (standard Tuning) Uke tab by Rise Against

6 Chords used in the song: C#, Ebm, F#, B, G#m, B5

9.8/10
PrintAdd tab to your SongBook

Tablature / Chords (

Font size: A- A A+

Artist: 
Album:  unknown
Difficulty: 
6.83
(Confirmed)
Key: F#, D#mChords and Tablature
(Intro)
A|-1----------------2--2222--222----|
E|----2----4-2-1----2--2222--222----|
C|-------1----------6--6666--666---|
G|------------------4--4444--444----|x3

C# C#

(Verse)
Ebm Ebm F# F# B B
Ebm Ebm F# F# B B
Ebm Ebm F# F# B B
C# C#
Ebm Ebm F# F# B B
Ebm Ebm F# F# B B
Ebm Ebm F# F# B B
C# C#

(Chorus)
Ebm Ebm B B F# F# G#m G#m
Ebm Ebm B B C# C#
Ebm Ebm B B F# F# G#m G#m
Ebm Ebm B B C# C#

(Verse)

(Chorus)

(Solo)
A|-1---1-4--4-4-4-6-4-2-1--1-1-1-6-4-2-1--1-1-1-4--4-4-4-4--4-4-4----|
E|-2-----2--2-2-2-2-----2--2-2-2-2-----2--2-2-2-1--1-1-1-1--1-1-1----|
C|-3-3---1--1-1-1-3-----1--1-1-1-3-----1--1-1-1-1--1-1-1-1--1-1-1----|
G|-3-----3--3-3-3-4-----3--3-3-3-4-----3--3-3-3-1--1-1-1-1--1-1-1----|

A|-1---1-4--4-4-4-6-4-2-1--1-1-1-6-4-2-1--1-1-1----|
E|-2-----2--2-2-2-2-----2--2-2-2-2-----2--2-2-2----|
C|-3-3---1--1-1-1-3-----1--1-1-1-3-----1--1-1-1----|
G|-3-----3--3-3-3-4-----3--3-3-3-4-----3--3-3-3----|

A|-4--4-4-4-4--4-4-4-4--4-4-4-4--4-4-4-4--4-4-4-4--4-4-4-4--4-4-4-4----|
E|-1--1-1-1-1--1-1-1-2--2-2-2-4--4-4-4-4--4-4-4-4--4-4-4-4--4-4-4-4----|
C|-1--1-1-1-1--1-1-1-1--1-1-1-1--1-1-1-5--5-5-5-5--5-5-5-5--5-5-5-5----|
G|-1--1-1-1-1--1-1-1-1--1-1-1-1--1-1-1-6--6-6-6-6--6-6-6-6--6-6-6-6----|

(Verse)

(Chorus)

(Outro)
Ebm Ebm F# F# B B
Ebm Ebm F# F# B B
Ebm Ebm F# F# G#m G#m B B
Ebm Ebm F# F# B5 B5
A|-1------1------------------------------------|
E|---2----2------------------------------------|
C|-----1--1------------------------------------|
G|--------3------------------------------------|

Uke tab by , 31 May 2012

Tab comments (0)

No comment yet :(
Need help, a tip to share, or simply want to talk about this song? Start the discussion!

Something to say?
Share your strumming patterns, chords or tips to play this tab! ;)

Top Tabs & Chords by Rise Against, don't miss these songs!

About this song: Swing Life Away (standard Tuning)

No information about this song.

Did you cover Swing Life Away (standard Tuning) on your Ukulele? Share your work!
Submit a cover