Losing My Religion Uke tab by Rem

Ukulele Tab without chords.

9.4/10
PrintAdd tab to your SongBook

Tablature / Chords (Full Song)

Font size: A- A A+

Artist: 
Year:  2003
Difficulty: 
8
(Confirmed)
Key: C, D, G, Cm, Am, Em, Tablature (no chords)
1. Intro / Refrain 
a-5-7-5-0-0---X-0-0-0-X-0-0-0-5-5-7-5-0-0-X-0-0-0-X-0-0-0-0-
e---------5---X-5-5-5-X-5-5-5-5---------5-X-5-5-5-X-5-5-5-5-
c---------5---X-5-5-5-X-5-5-5-5---------4-X-4-4-4-X-4-4-4-4-
g---------5---X-5-5-5-X-5-5-5-5---------5-X-5-5-5-X-5-5-5-5-


a-5-7-5-0-0---X-0-0-0-X-0---0-0-5-5-7-5-0-0---X-0-0-0-X-2--2---
e---------5---X-5-5-5-X-5---5-5-5---------5---X-5-5-5-X-3--3---
c---------5---X-5-5-5-X-5---5-5-5---------4---X-4-4-4-X-4--4---
g---------5---X-5-5-5-X-5---5-5-5---------5---X-5-5-5-X-X--X---


a-X-2-2-0-
e-X-3-3-0-
c-X-4-4-0-
g-X-X-X-0-


2. Couplet / Verse
a-0---0---X-0-X-0--0--X-0-0-0-2--2--X-2-X-2--2---X-2-2-0-
e-5---5---X-5-X-5--5--X-5-5-0-3--3--X-3-X-3--3---X-3-3-0-
c-4---4---X-4-X-4--4--X-4-4-0-4--4--X-4-X-4--4---X-4-4-0-
g-5---5---X-5-X-5--5--X-5-5-0-X--X--X-X-X-X--X---X-X-X-X-


a-0---0---X-0-X-0--0---X-0-0-0-2---2---X-2-X-2-----2---X-2-2-0-
e-5---5---X-5-X-5--5---X-5-5-0-3---3---X-3-X-3-----3---X-3-3-0-
c-4---4---X-4-X-4--4---X-4-4-0-4---4---X-4-X-4-----4---X-4-4-0-
g-5---5---X-5-X-5--5---X-5-5-0-X---X---X-X-X-X-----X---X-X-X-X-


a-0---0---X-0-X-0--0---X-0-0-0-2---2---X-2-X-2-----2---X-2-2-0-
e-1---1---X-1-X-1--1---X-1-1-0-3---3---X-3-X-3-----3---X-3-3-0-
c-2---2---X-2-X-2--2---X-2-2-0-2---2---X-2-X-2-----2---X-2-2-0-
g-2---2---X-2-X-2--2---X-2-2-0-X---X---X-X-X-X-----X---X-X-X-X-

3. Solo
a-7-7-7-5---5-5-5-3-3-3-0---0-0-0-7-7-7-5---5-5-5-3-3-3-0---
e-0-----0-----0---0-----0-----0---0-----0-----0-----0---0---
c-----------------------------------------------------------
g-----------------------------------------------------------


a-7-7-7-5---5-5-5-3-3-3-0---0-0-0-7-7-7-5---5-3-0-----------
e-0-----0-----0---0-----0-----0---0-----0-----0-0-----------
c-----------------------------------------------------------
g-----------------------------------------------------------


4. Fin / End
a-7-7-7-7---7-7-7-7-7-7-7---7-7-7-7-7-7-7---7-7-7-7-7-7-7---
e-0-----0---------0-----0---------0-----0---------0-----0---
c-----------------------------------------------------------
g-----------------------------------------------------------


a-7-7-7-7-5-3-0-5-3-0-3-0--------
e-------0-----0-0-0-0-0-0----------
c----------------------------------
g----------------------------------

⇢ Not happy with this tab? View 6 other version(s)

Uke tab by , 21 Oct 2009

Tab comments (1)

Something to say?
Share your strumming patterns, chords or tips to play this tab! ;)
Filter by:
UkeOwl avatar
flag for NZ(ISO2) (Auckland)
Very nice. If I could make a suggestion, it would be great to include the chord names too (F,Am etc...)

But accurate tab :)
26 Oct 2009
Correction

Top Tabs & Chords by Rem, don't miss these songs!

About this song: Losing My Religion

No information about this song.

Did you cover Losing My Religion on your Ukulele? Share your work!
Submit a cover