Losing My Religion Uke tab by Rem

8 Chords used in the song: F, Am, Dm, Em, G, Am/B, Am/C, C

9/10
PrintAdd tab to your SongBook

Tablature / Chords (Full Song)

Font size: A- A A+

Artist: 
Year:  2003
Difficulty: 
2.88
(Beginner)
Key: C, AmChords and Tablature
intro: [F F][Am Am][F F][Dm Dm-G G]


1st verse :
Am Am Em Em Am Am
Oh, life it's bigger, it's bigger that you and you are not me
Em Em Am Am
The lengths that I will go to, the distance in your eyes
Em Em Dm Dm G G
Oh no I've said too much, I've said it all
Am Am Em Em
That's me in the corner, that's me in the spotlight,
Am Am Em Em
Losing my religion, trying to keep up with you
Am Am
And I don't know if I can do it,
Em Em Dm Dm G G
Oh no I've said too much, I haven't said enough



Chorus :
F F
I thought that I heard you laughing,
Am – - Am/B – - Am/C - - Am -
I thought that I heard you sing
F F Am Am
I think I thought I saw you try



2nd verse :
Am Am Em Em
Every whisper of every waking hour
Am Am Em Em
I'm choosing my confessions trying to keep an eye on you
Am Am
Like a hurt lost and blinded foal, oh
Em Em Dm Dm G G
Oh no I've said too much, I said it all
Am Am Em Em
Consider this, consider this a hint of the century,
Am Am Em Em
Consider this, a slip that brought me to my knees, pale
Am Am Em Em
What if all these fantasies come flailing around
Dm Dm G G
Now I've said too much




Chorus :
F F
I thought that I heard you laughing,
Am – - Am/B – - Am/C - - Am -
I thought that I heard you sing
F F Am Am
I think I thought I saw you try


Bridge :

Am Am - G G -
A|---/7--7--7--5~~-5--5\--/3--3--3--0~~0--0\--|
E|--------------------------------------------|
C|--------------------------------------------|
G|--------------------------------------------|

F F - G G -
A|---/7--7--7--5~~-5--5\--/3--3--3--0~~0--0\--|
E|--------------------------------------------|
C|--------------------------------------------|
G|--------------------------------------------|


C C - Am Am -
But That was just a dream
C C - Am Am - - G G - -
That was just a dream



3rd verse :
Am Am Em Em
That's me in the corner, that's me in the spotlight,
Am Am Em Em
Losing my religion, trying to keep up with you
Am Am
And I don't know if I can do it,
Em Em Dm Dm G G
Oh no I've said too much, I haven't said enough


Chorus :
F F
I thought that I heard you laughing,
Am – - Am/B – - Am/C - - Am -
I thought that I heard you sing
F F Am Am
I think I thought I saw you try
F F Am Am
But That was just a dream, try, cry, fly, and try
F F Am Am - G G -
That was just a dream, just a dream, just a dream, dream


Am Am>let ring
A|---/7----7----7----7--------7----7\---------|
E|--------------------------------------------| x8
C|--------------------------------------------|
G|--------------------------------------------|

E|---/7---5---6---3---5---6---3---6---3-------|
E|--------------------------------------------|
C|--------------------------------------------|
G|--------------------------------------------|

⇢ Not happy with this tab? View 6 other version(s)

Uke tab by , 18 Aug 2009

Tab comments (0)

No comment yet :(
Need help, a tip to share, or simply want to talk about this song? Start the discussion!

Something to say?
Share your strumming patterns, chords or tips to play this tab! ;)

Top Tabs & Chords by Rem, don't miss these songs!

About this song: Losing My Religion

No information about this song.

Did you cover Losing My Religion on your Ukulele? Share your work!
Submit a cover