Weird Fishes Uke tab by Radiohead

4 Chords used in the song: Em7, A6, A, Gmaj7

Add tab to your SongBook
Tablature / ChordsFont size: A- A A+

Don't know how to read a tab or a chord ? Check out these uke lessons:

Detailed guide to strumming and picking
How to read uke tabs
Reading chord diagrams

first chord
A|-2--------------------------------------|
E|----------------------------------------|
C|-2--------------6-------------------------|
G|----------------6------------------------|
i like using this A6 A6 chord


A|------------------2----------------------|
E|------------------2----------------------|
C|-1----------------2-----------------------|
G|-2---------------------------------------|
just normal last chord
A A chord

just listen to the song and get the rhythm

 

Tab comments (0)
No comment yet :(
Need help, a tip to share, or simply want to talk about this song? Start the discussion!

You must be logged in to join the discussion
or Register

 

About this song

No information about this song.