Lavender Town Theme Uke tab by Pokemon

Ukulele Tab without chords.

9.4/10
PrintAdd tab to your SongBook

Tablature / Chords (Simplified Song)

Font size: A- A A+

Artist: 
Album:  unknown
Difficulty: 
4.5
(Intermediate)
Key: AmTablature (no chords)
# This song is basically 3 parts. The first part is an underlying pattern of...

A-----------2------
E------3--------2--
C-0----------------
G------------------

# ... which just repeats through the whole song. Then there is this pattern...

A------------------------------------------------
E-12---------10--------8-------12---10---9---12--
C------------------------------------------------
G------------------------------------------------

# ... and that's the only way to get all the notes in, but if you want you can cheat by playing C-4 instead of E-12 and C-0 for E-8 and skipping the note which would be E-9

# Finally, this is what plays over it all


--------------------------------------------------------------
----------------------3--------3-----------0--------0---------
--------------------------------------------------------------
--------------------------------------------------------------

-----------------------------------------------------------------
--3----2----0---------------------------------3--------3---------
--------------------------1--------1-----------------------------
-----------------4-----------------------------------------------

-----------------------------------------------------------------
--2--------2----------------3----2-------------------------------
-----------------------------------------------------------------
-----------------------4--------------4-------5--------5---------

-----------------------------------------------------------------
--3--------3-----------0--------0-----------3----2---------------
-----------------------------------------------------------------
-----------------------------------------------------------4-----

---------------------------------------------------------------
-----------------------3--------3-----------2--------2---------
---------------------------------------------------------------
--1--------1---------------------------------------------------

----------------------------------------------------------------
-------3----2---------------------------------------------------
--------------------------0-----------0-------------------------
--4--------------4----------------------------------------------

------------------------------------------------------------
------------------------------------------------------------
------------------------------------------------------------
------------------------------------------------------------

-----------------------------------------------------------------
--3--------3-----------0--------0-----------3----2----0----------
-----------------------------------------------------------------
-----------------------------------------------------------4-----

---------------------------------------------------------------
-----------------------3--------3-----------2--------2---------
--1--------1---------------------------------------------------
---------------------------------------------------------------

-----------------------------------------------------------------
-------3----2---------------------------------3--------3---------
-----------------------------------------------------------------
--4--------------4-------5--------5------------------------------

-----------------------------------------------------------------
-----------------------3----2------------------------------------
--4--------4----------------------------------1--------1---------
--------------------------------------4--------------------------

-----------------------------------------------------------------
--3--------3-----------2--------2----------------3----2----------
-----------------------------------------------------------------
--------------------------------------------4--------------4-----

-------------------------------------------------------------
-------------------------------------------------------------
--0--------0-------------------------------------------------
-------------------------------------------------------------

hope this helped

⇢ Not happy with this tab? View 1 other version(s)

Uke tab by , 25 Nov 2011

Tab comments (3)

Something to say?
Share your strumming patterns, chords or tips to play this tab! ;)
Filter by:
Lemonielulu avatar
Just what I was looking forˆ-ˆ
09 Jun 2018
Comment
KalaKiwi avatar
flag for PH(ISO2) (Pasig City)
When my friend first showed me the original soundtrack, i freaked. to this day, i still do not play pokemon... :D
29 Jun 2017
Correction
MoonCloudx avatar
It's great :D Thank you ~ (Too spooky xD)
11 Nov 2014
Correction

Top Tabs & Chords by Pokemon, don't miss these songs!

About this song: Lavender Town Theme

No information about this song.

Did you cover Lavender Town Theme on your Ukulele? Share your work!
Submit a cover