Question Uke tab by Old 97s

8 Chords used in the song: C, Cmaj, Am, F, Dm, Cmaj7, G, Bb

Add tab to your SongBook
Tablature / ChordsFont size: A- A A+

Don't know how to read a tab or a chord ? Check out these uke lessons:

Detailed guide to strumming and picking
How to read uke tabs
Reading chord diagrams

# Intro:
# C Cmaj Am (3--3--5--3--1 think below) F Am Dm (3--3--0--2--3 thing below)




C C Cmaj7 Cmaj7 Am Am
She woke from a dream
|--------------|
|3--3--5--3--1 |
|--------------|
|--------------| F
Her head was on fire
Am Am Dm Dm
Why was he so nervous?


|------0--2--3|
|3--3---------|
|-------------|
|-------------|

C C Cmaj7 Cmaj7 Am Am
He took her to the park

|--------------|
|3--3--5--3--1 |
|--------------|
|--------------| F
She crossed her arms
Am Am Dm Dm
And lowered her eyelids

|--------------|
|3--3--5--3--1 |
|--------------|
|--------------|

F F G G C C Bb Bb
Someday, somebody's gonna ask you
F F G G C C
A A question that you should say yes to
Bb Bb F F
Once in your life
Am Am F F
Baby, tonight I've got a

|------0--2--3|
|3--3---------|
|-------------|
|-------------|
question for you

C Cmaj7 Am (3--3--5--3--1 thing) F Am Dm (3--3--0--2--3 thing)


# The rest of the song is the same and you won't be able to see the lyrics anyway, sorry. Here you go!

 

Tab comments (0)
No comment yet :(
Need help, a tip to share, or simply want to talk about this song? Start the discussion!

You must be logged in to join the discussion
or Register

 

About this song

No information about this song.