One Uke tab by Metallica

Ukulele Tab without chords.

Add tab to your SongBook
Tablature / ChordsFont size: A- A A+

Don't know how to read a tab or a chord ? Check out these uke lessons:

Detailed guide to strumming and picking
How to read uke tabs
Reading chord diagrams

H          ~    P       P         P   ~    
A|-----------------5-4-----5-4-----5-5-4-----|
E|-0-2---------------------------------------|
C|-------------------------------------------|
g|------2-4b6r4--------4-------2---------4---|

A|----------------------------------------4h5-4~------4-5p4-----------|
E|--------------------------------------------------------------------|
C|-6-p4\2--4p2----2---------------------------------------------------|
g|-------------6----6\4--6p4\2--/4~~---/4-----------4-------2\4~~-----|

A|-----------------------------------|
E|-----------------------------------|
C|-----------------------------------|
g|-4-7-11--16---14--12--11--12--7----|

A|-----------------------------------|
E|-------------------------3--3------|
C|-2---2--4-2-4--6--4-6----------6---|
g|---6-------------------------------|

A|-----------------------------------------------------------------------|
E|--------3--5----------3------------------------------------------------|
C|-----6-------------6------------6--------------------------------------|
g|-4-7-----------4-7------4---4-7---4--6--7--/9--7--6--4--6--6---7--4~---|

A|----2-----2-----2-2h4-2--|
E|-0-----2-----0-----------|
D|-------------------------|
g|-------------------------|

A|-2--9--2--5-5-9--5------9-----5--9-9-5--|
E|---------------------3-----3------------|
C|----------------------------------------|
g|----------------------------------------|

A|-2--9--2--5-5-9--5--0--9--0--5--9-9--------9-----5-5-9--5--|
E|----------------------------------------3-----3------------|
C|-----------------------------------------------------------|
g|------------------------------------0----------------------|

A|----7-9--7-----4------5--5------7--|
E|-0----------2------3--------3-5----|
C|-----------------------------------|
g|-----------------------------------|

A|-------------------------2h5p2---2h5p2----|
E|----5-------5------3----------------------|
C|-2-------2--------------------------------|
g|-------0-------0------4--------4-------0--|

A|-----------------------2---2--|
E|-------------------------0----|
C|-5------5--------4------------|
g|---5--0----5--0----4-0--------|

A|-------------------------2h5p2---2h5p2----|
E|----5-------5------3----------------------|
C|-2-------2--------------------------------|
g|-------0-------0------4--------4-------0--|

A|-----------------------2------|
E|------------------------------|
C|-5------5--------4---------0--|
g|---5--0----5--0----4-0--------|

A|-2--9--2--5-5-9--5-----9-----5--9-9-5--2--9--2--5-5-9--5-----9-----5---/5--|
E|--------------------3-----3-------------------------------3-----3------/5--|
C|---------------------------------------------------------------------------|
g|---------------------------------------------------------------------------|

A|-2--9--2--5-5-9--5--0--9--0--5--9-9--------9-----5-5-9--5------2-----2--|
E|----------------------------------------3-----3-------------0-----2-----|
C|------------------------------------------------------------------------|
g|------------------------------------0-----------------------------------|

A|-5---0-2-0-5--4--2-0--2-4-2-0--3~-4~--|
E|-3---------3--2-----------------------|
C|-----4-6-4-------6-4--6-8-6-4---------|
g|--------------------------------------|

A|-------------------------2h5p2---2h5p2----|
E|----5-------5------3----------------------|
C|-2-------2--------------------------------|
g|-------0-------0------4--------4-------0--|

A|-----------------------2---2--|
E|-------------------------0----|
C|-5------5--------4------------|
g|---5--0----5--0----4-0--------|

A|-------------------------2h5p2---2h5p2----|
E|----5-------5------3----------------------|
C|-2-------2--------------------------------|
g|-------0-------0------4--------4-------0--|
S
A|-----------------------2------|
E|------------------------------|
C|-5------5--------4---------0--|
g|---5--0----5--0----4-0--------|

A|-2--9--2--5-5-9--5-----9-----5--9-9-5--2--9--2--5-5-9--5-----9-----5---/5--|
E|--------------------3-----3-------------------------------3-----3------/5--|
C|---------------------------------------------------------------------------|
g|---------------------------------------------------------------------------|

A|-2--9--2--5-5-9--5--0--9--0--5--9-9--------9-----5-5-9--5------2-----2--|
E|----------------------------------------3-----3-------------0-----2-----|
C|------------------------------------------------------------------------|
g|------------------------------------0-----------------------------------|

A|-5---0-2-0-5--4--2-0--2-4-2-0--3~-4~--|
E|-3---------3--2-----------------------|
C|-----4-6-4-------6-4--6-8-6-4---------|
g|--------------------------------------|

A|-------------------------2h5p2---2h5p2----|
E|----5-------5------3----------------------|
C|-2-------2--------------------------------|
g|-------0-------0------4--------4-------0--|

A|-----------------------2-----------|
E|-------------------------5-p2---2--|
C|-5------5--------4------------2----|
g|---5--0----5--0----4-0-------------|

A|---------------------------------------------------|
E|-5~---5--3-2---2--h3p2---------------5--------3~---|
C|-------------4---------2~--------------------------|
g|---------------------------/7--5--4-----4--5-------|
P P P P P P P P
A|-------------------------------------------------------------------------------------------------|
E|-------------------------------------------------------------------------------------------------|
C|-------------------------------------------------------------------------------------------------|
g|-14--11--7--11--14---14--12--11--12--11--7---7--11--12--14--16--14--12--16--14--12--16--14--12---|

A|-------------------|
E|-------------------|
C|-------------------|
g|-11--12--9--11--7--|

A|-----------------------------|
E|--3--3-3-2-------------------|
C|--2--2-2-2---7--7--7--7--7---|
g|-------------5--5--5--5--4---|

A|--------------------------------------------------------------------------------|
E|-t---------t---------t---------t---------t---------t----------|
C|--------------------------------------------------------------|
g|--17--14--10---17--14--10---17--14--10---17--14--10---17--14--10---17--14--10---|

A|-5---0-2-0-5--4--2-0--2-4-2-0--2--4--|
E|-3---------3--2----------------------|
C|-----4-6-4-------6-4--6-8-6-4--6--8--|
g|-------------------------------------|

A|-5---0-2-0-5--4--2--|
E|-3---------3--2-----|
C|-----4-6-4-------6--|
g|--------------------|

A|---------------------------2----2-2-----|
E|-----------3---3------------------------|
C|-4----2--4-------------------------0----|
g|-9----7--9/12---12---------4----4-4--5--|

A|---------------------------------------|
E|-----------3---3-----------------------|
C|-4----2--4---------------3---3-3--4----|
g|-9----7--9/12---12---------8---8-8--9--|

A|---------------------------2----2-2-----|
E|-----------3---3------------------------|
C|-4----2--4-------------------------0----|
g|-9----7--9-12---12---------4----4-4--5--|

A|------------------------------------------|
E|-----------3---3--------------------3-----|
C|-4----2--4--------------66---66-66--------|
g|-9----7--9-12---12--------------------12--|

A|-------------------------|
E|-3-3-3-5-3---2-2-2-3-2---|
C|-4-4-4-4-4-2-2-2-2-2-2---|
g|-------------------------|

A|-2------2----3------3----|
E|-----2----2------3----3--|
C|-6------6----7------7----|
g|-4------4----5------5----|

A|-------------------------|
E|-3-3-3-5-3---2-2-2-3-2---|
C|-4-4-4-4-4-2-2-2-2-2-2---|
g|-------------------------|

A|-2------2----3--3-3-3----3----|
E|-----2----2------------3---3--|
C|-6------6----7--7-7-7----7----|
g|-4------4----5------5----5----|

A|-3--------|
E|-0--------|
C|-7--------|
g|----------|

A|-------------2--------------2--------------2--------------2--|
E|-0-0-0-0-0-0----0-0-0-0-0-0----0-0-0-0-0-0----0-0-0-0-0-0----|
C|-------------4--------------4--------------4--------------4--|
g|-------------------------------------------------------------|

A|-------------2--------------2--------------2--------------2-3--|
E|-0-0-0-0-0-0----0-0-0-0-0-0----0-0-0-0-0-0----0-0-0-0-0-0------|
C|-------------4--------------4--------------4--------------4-5--|
g|---------------------------------------------------------------|

A|-------------2--------------2-3--|
E|-0-0-0-0-0-0----0-0-0-0-0-0------|
C|-------------4--------------4-5--|
g|---------------------------------|

A|-------------2--------------2--------------2--------------2-3--|
E|-0-0-0-0-0-0----0-0-0-0-0-0----0-0-0-0-0-0----0-0-0-0-0-0------|
C|-------------4--------------4--------------4--------------4-5--|
g|---------------------------------------------------------------|

A|-------------2--------------2--------------2--------------2-3--|
E|-0-0-0-0-0-0----0-0-0-0-0-0----0-0-0-0-0-0----0-0-0-0-0-0------|
C|-------------4--------------4--------------4--------------4-5--|
g|---------------------------------------------------------------|

A|-------------7~--------------7/8--------------5~--------------5/8--|
E|-0-0-0-0-0-0-----0-0-0-0-0-0------0-0-0-0-0-0-----0-0-0-0-0-0------|
D|-------------------------------------------------------------------|
g|-------------------------------------------------------------------|

A|-------------7~--------------7/8--------------5~--------------5\2--|
E|-0-0-0-0-0-0-----0-0-0-0-0-0------0-0-0-0-0-0-----0-0-0-0-0-0------|
D|-------------------------------------------------------------------|
g|-------------------------------------------------------------------|

A|-------------2--------------2--------------2--------------2-3--|
E|-0-0-0-0-0-0----0-0-0-0-0-0----0-0-0-0-0-0----0-0-0-0-0-0------|
C|-------------4--------------4--------------4--------------4-5--|
g|---------------------------------------------------------------|

A|-------------2--------------2--------------2--------------2-3--|
E|-0-0-0-0-0-0----0-0-0-0-0-0----0-0-0-0-0-0----0-0-0-0-0-0------|
C|-------------4--------------4--------------4--------------4-5--|
g|---------------------------------------------------------------|

A|-------------2-------------2-------3--|
E|-0-0-0-0-0-0---0-0-0-0-0-0---0-0-0----|
C|-------------4-------------4-------5--|
g|--------------------------------------|

A|----------------------------------------|
E|----------------------------------------|
C|-4-4-4-4-4-4-4--4-4-4-4-4-4-4--4-4-4-4--|
g|----------------------------------------|

A|--------------------------------------------|
E|--------------------------------------------|
C|-4-4-4-4-4-4-4--4-4-4-4-4-4-4--4-4-4-4-4-4--|
g|--------------------------------------------|

A|-------------2-------------2-------3--|
E|-0-0-0-0-0-0---0-0-0-0-0-0---0-0-0----|
C|-------------4-------------4-------5--|
g|--------------------------------------|

A|----------------------------------------|
E|----------------------------------------|
C|-4-4-4-4-4-4-4--4-4-4-4-4-4-4--4-4-4-4--|
g|----------------------------------------|

A|--------------------------------------------|
E|--------------------------------------------|
C|-4-4-4-4-4-4-4--4-4-4-4-4-4-4--4-4-4-4-4-4--|
g|--------------------------------------------|

A|-------------------------------------------------------------------------------------|
E|-t---------t---------t---------t---------t---------t---------t-----------------------|
C|-------------------------------------------------------------------------------------|
g|--16--12--9---16--12--9---16--12--9---16--12--9---16--12--9---16--12--9---16--12--9--|

A|------------|
E|-t----------|
C|------------|
g|--16--12--9-|

A|-------------------------------------------------------------------------------------|
E|-t---------t---------t---------t---------t---------t---------t-----------------------|
C|-------------------------------------------------------------------------------------|
g|--17--12--9---17--12--9---17--12--9---17--12--9---17--12--9---17--12--9---17--12--9--|

A|------------|
E|-t----------|
C|------------|
g|--17--12--9-|

A|-------------------------------------------------------------------------------
E|-------------------------------------------------------------------------------
C|-------------------------------------------------------------------------------
g|--11--7--4---11--7--4---11--7--4---11--7--4---11--7--4---11--7--4---11--7--4---

A|------------|
E|------------|
C|------------|
g|--11--7--4--|

A|-------------------------------------------------------------------------------
E|-------------------------------------------------------------------------------
C|-------------------------------------------------------------------------------
g|--12--7--4---12--7--4---12--7--4---12--7--4---12--7--4---12--7--4---12--7--4---
P P
A-------------|
E------------|
C------------|
g--12--7--4---|

A|------------------------------------------------------------------------
E|--------5---------5---------5---------5---------5---------5---------5---
C|------------------------------------------------------------------------
g|--9--5------9--5------9--5------9--5------9--5------9--5------9--5------

A------------|
E--------5---|
C------------|
g--9--5------|

A|-------------------------------------------------------------------------------
E|--------5---------5---------5---------5---------5---------5---------5----------
C|-------------------------------------------------------------------------------
g|--10--5------10--5------10--5------10--5------10--5------10--5------10--5------
P P
A-------------|
E--------5----|
C-------------|
g--10--5------|

A|-----------------------------------------------------------------------------|
E|----------------------5-------------5------3-----5------3-----2-----3-----2--|
C|-----------------------------------------------------------------------------|
g|--9--4--6---9--4---9------9--4---9------9-----9------9-----9-----9-----9-----|

A|-----7---|
E|---------|
C|---------|
g|--9------|

A|---------------------------------------------------------------------------------------|
E|---------------------------------------------------------------------------------------|
C|---------------------------------------------------------------------------------------|
g|--4--4--4--4--4--4--4----11--11--11--12--12--12--14--14--14--7--7--7--14--14--14--14---|

A|------------------------|
E|-22b24---22b24-22b24----|
C|------------------------|
g|------------------------|

A|---------------------------------------------------------------------------------|
E|---------------------------------------------------------------------------------|
C|---------------------------------------------------------------------------------|
g|--9--12--14--12--9--7--9--11--12--14--12--9--7--9--11--12--14--12--9--7--9--11---|

A|-------------------------------------------------------------------------------|
E|-------------------------------------------------------------------------------|
C|-------------------------------------------------------------------------------|
g|-12--14--12--9--9--11--12--12--14--12--9--7--9--11--12--14--12--9--7--12--14---|

A|--------------------------------------------------------------|
E|--------------------------------------------------------------|
C|--------------------------------------------------------------|
g|-16--14--12--7--16--14--12--7--16--14--12--7--16--14--12--7---|

A|-----------------------------------------------|
E|-----------------------------------------------|
C|-----------------------------------------------|
g|-16--14--7--16--14--7--16--14--7--16--14--12---|

A|--------------------------------------------------|
E|--------------------------------------------------|
C|--------------------------------------------------|
g|-10--12--12--10--12--12--10--12--12--10--12--12---|

A|--------------------------------------------------|
E|---b-----------------b----------------------------|
C|--------------------------------------------------|
g|-15--16--12--10--12--12--15--16--12--10--12--12---|

A|---------------------------------------------------------------------------|
E|---------------------------------------------------------------------------|
C|---------------------------------------------------------------------------|
g|-16--14--12--14---14--12--11--12---11--9--7--9---9--7--5--7---7--5--4--5---|

A|-------------------------------------------------------------------------|
E|-------5-----5--3--5--3-----3-----3--5-----5-----5-----5----------5--3---|
C|-------------------------------------------------------------------------|
g|-5--4-----4--------------9-----9-------b4----b4----b4----b4--(4-)r-------|

A|------------------------------------|
E|----3-----3--------------6--5--3----|
C|------------------------------------|
g|-9-----9-----9--8--7--4-------------|

A|----------7------------7------------7------------7|
E|--------------------------------------------------|
C|--------10---------10---------10---------10-------|
g|--12--12--7---12--12--7---12--12--7---12--12--7---|

A|-9---------9---------------9---7-------7---|
E|-------------------------------------------|
C|-12--13----12--13-----13---12--10-----10---|
g|-9-b10----9-b10----(10-)r9--7--12--7-------|


A|----------7------------7-------9---9---7-|
E|-----------------------------------------|
C|--------10---------10---x--12--12--10----|
g|--12--12--7---12--12--7---x--9--9--7-----|

A|---------------------------------------------------------------------------------------|
E|---------------------------------------------------------------------------------------|
C|---------------------------------------------------------------------------------------|
g|-7--10--12--12--10--12--12--10--12--12--10--12--12--10--12--12--10--12--12--12--12-----|

A|-----------------5-5-5-5-5-5-4-4-4-3-3-3-2-2-2--|
E|-3-3-3-3-3-3-3----------------------------------|
D|------------------------------------------------|
g|------------------------------------------------|

A|-------------2-------------2-------3--|
E|-0-0-0-0-0-0---0-0-0-0-0-0---0-0-0----|
C|-------------4-------------4-------5--|
g|--------------------------------------|

A|-----------------5-5-5-5-5-5-4-4-4-3-3-3-2-2-2--|
E|-0-0-0-0-0-0-0----------------------------------|
D|------------------------------------------------|
g|------------------------------------------------|

A|-----------------------------------------------------------------7----|
E|-3-3-3-2----5--5--5--3-------------5------5--3-5---5--3-2-3--3-2---2--|
C|---------2-------------4----------------------------------------------|
g|--------------------------4--4--4------4------------------------------|
P S
A|---7-5-7--|
E|-2--------|
C|----------|
g|----------|

A|-------------------------------------------------------------------------|
E|-3-3-3-2----5--5--5--3-------------5------5--3-5---5--3-2-3--------5-----|
C|---------2-------------4-------------------------------------------------|
g|--------------------------4--4--4------4---------------------5--4-----4--|

A|-------------|
E|----5--3-5---|
C|-------------|
g|-4-----------|

A|-----------------------------------------------------------------7----|
E|-3-3-3-2----5--5--5--3-------------5------5--3-5---5--3-2-3--3-2---2--|
C|---------2-------------4----------------------------------------------|
g|--------------------------4--4--4------4------------------------------|

A|---7-5-7--|
E|-2--------|
C|----------|
g|----------|

A|-----------------------------------------------------------------7----|
E|-3-3-3-2----5--5--5--3-------------5------5--3-5---5--3-2-3--3-2---2--|
C|---------2-------------4----------------------------------------------|
g|--------------------------4--4--4------4------------------------------|

A|---7/5-7--7p5\4-5--5p4p2-4--------------------|
E|-2--------------------------------------------|
C|----------------------------------------------|
g|----------------------------6-4-2-4--4p2p0-2--|

A|-------------2-------------2-------3--|
E|-0-0-0-0-0-0---0-0-0-0-0-0---0-0-0----|
C|-------------4-------------4-------5--|
g|--------------------------------------|

A|-----5------5------5------5--|
E|-3-3-3--3-3-3--3-3-3--3-3-3--|
D|-----------------------------|
g|-----------------------------|

A|-------------2-------------2-------3--|
E|-0-0-0-0-0-0---0-0-0-0-0-0---0-0-0----|
C|-------------4-------------4-------5--|
g|--------------------------------------|

A|-----5------5------5------5--|
E|-3-3-3--3-3-3--3-3-3--3-3-3--|
D|-----------------------------|
g|-----------------------------|

A|-------------2-2------3------3--|
E|-0-0-0-0-0-0-0-0--1-1-1--1-1-1--|
D|--------------------------------|
g|--------------------------------|

A|-------------2-2------5------5------5------5---|
E|-0-0-0-0-0-0-0-0--3-3-3--3-3-3--3-3-3--3-3-3---|
D|-----------------------------------------------|
g|-----------------------------------------------|

A|-------------2-------------2-------3--|
E|-0-0-0-0-0-0---0-0-0-0-0-0---0-0-0----|
C|-------------4-------------4-------5--|
g|--------------------------------------|

A|-2-2-2-2-2-2-2---2-2-2-2-2-2-2--|
E|-0-0-0-0-0-0-0---0-0-0-0-0-0-0--|
D|--------------------------------|
g|--------------------------------|

A|-------------2-------------2-------3--|
E|-0-0-0-0-0-0---0-0-0-0-0-0---0-0-0----|
C|-------------4-------------4-------5--|
g|--------------------------------------|

A|-------------2-------------2-------3--|
E|-0-0-0-0-0-0---0-0-0-0-0-0---0-0-0----|
C|-------------4-------------4-------5--|
g|--------------------------------------|

A|-------------2-------------2-------3--|
E|-0-0-0-0-0-0---0-0-0-0-0-0---0-0-0----|
C|-------------4-------------4-------5--|
g|--------------------------------------|

A|-------------2-------------2-------3--|
E|-0-0-0-0-0-0---0-0-0-0-0-0---0-0-0----|
C|-------------4-------------4-------5--|
g|--------------------------------------|

A|--------------------------------------------|
E|--------------------------------------------|
C|-4-4-4-4-4-4-4--4-4-4-4-4-4-4--4-4-4-4-4-4--|
g|--------------------------------------------|

A|-------------2--2--------------2--2--|
E|-0-0-0-0-0-0-------0-0-0-0-0-0-------|
C|-------------4--4--------------4--4--|
g|-------------------------------------|

A|-------------2--3--------------5--5--|
E|-0-0-0-0-0-0-------3-3-3-3-3-3-3--3--|
C|-------------4--5--------------7--7--|
g|-------------------------------------|

A|-------------2--2--------------2--2--|
E|-0-0-0-0-0-0-------0-0-0-0-0-0-------|
C|-------------4--4--------------4--4--|
g|-------------------------------------|

A|-------------2--3--------------5--5--|
E|-0-0-0-0-0-0-------3-3-3-3-3-3-3--3--|
C|-------------4--5--------------7--7--|
g|-------------------------------------|

A|-------------5--5--------------5--5--|
E|-3-3-3-3-3-3-3--3--3-3-3-3-3-3-3--3--|
C|-------------7--7--------------7--7--|
g|-------------------------------------|

A|-------------5--6--------------3--3--|
E|-3-3-3-3-3-3-------1-1-1-1-1-1-1--1--|
C|-------------7--8--------------5--5--|
g|-------------------------------------|

A|-------------5--5--------------5--5--|
E|-3-3-3-3-3-3-3--3--3-3-3-3-3-3-3--3--|
C|-------------7--7--------------7--7--|
g|-------------------------------------|

A|-------------5--6--------------3--3--|
E|-3-3-3-3-3-3-------1-1-1-1-1-1-1--1--|
C|-------------7--8--------------5--5--|
g|-------------------------------------|

A|-----5------5------5------5--|
E|-3-3-3--3-3-3--3-3-3--3-3-3--|
C|-----7------7------7------7--|
g|-----------------------------|

A|-------------3--3--------------3--3--|
E|-1-1-1-1-1-1-1--1--1-1-1-1-1-1-1--1--|
C|-------------5--5--------------5--5--|
g|-------------------------------------|

A|-----5------5------5------5--|
E|-3-3-3--3-3-3--3-3-3--3-3-3--|
C|-----7------7------7------7--|
g|-----------------------------|

A|-------------3--3--------------3--3--|
E|-1-1-1-1-1-1-1--1--1-1-1-1-1-1-1--1--|
C|-------------5--5--------------5--5--|
g|-------------------------------------|

 

Tab comments (4)
You must be logged in to join the discussion
or Register

 

Tarzaan avatar
flag for US(ISO2) (Culpeper)
What do the letters mean??
28 Aug 2017
Uriah808 avatar
flag for UM(ISO2) (kilauea)
took a bit of practice, but sounds bitchen plugged in.
25 Dec 2012
ukudude22 avatar
this is perfect!!!!!
I'm just surprised you took the time to tab this entire song out!
Great job!!!
27 Nov 2012
MrDrPrMango avatar
This is pretty good
22 May 2012
About this song

No information about this song.