Fade To Black (Intro) Uke tab by Metallica

Ukulele Tab without chords.

Add tab to your SongBook
Tablature / ChordsFont size: A- A A+

Don't know how to read a tab or a chord ? Check out these uke lessons:

Detailed guide to strumming and picking
How to read uke tabs
Reading chord diagrams

A|-----5-6-5---5---5---5-6-5---5-1-5------|
E|---3-------3---6---1-------1------------|
C|----------------------------------------|
G|----------------------------------------|



A|----5-6-5---5---5---3-8-3---3---3-------|
E|--3-------3---6---5-------5---6---------|
C|----------------------------------------|
G|----------------------------------------|

 

Tab comments (1)
You must be logged in to join the discussion
or Register

 

alexemarley avatar
not perfect but better than other version, thanks :D
30 Jul 2012
About this song

No information about this song.