Fade To Black Uke tab by Metallica

Ukulele Tab without chords.

PrintAdd tab to your SongBook
Tablature / ChordsFont size: A- A A+

Don't know how to read a tab or a chord ? Check out these uke lessons:

Detailed guide to strumming and picking
How to read uke tabs
Reading chord diagrams

A|-2-----------2----------|-0-----------0----------|
E|----2-----2-----2-----2-|----2-----2-----2-----2-|
C|-------------------2----|-------------------2----|
G|-------0----------------|-------0----------------|

A|-2-----------2----------|-------------------0----|
E|----2-----2-----2-----2-|----0-----0-----0-----0-|
C|-------------------2----|-1-----------1----------|
G|-------0----------------|-------2----------------|

A|----------------2-----2-|-2--------2--------2----5--|
E|-------------4-----0----|----0--------0-------------|
C|-5--0--2--5-------------|---------------------------|
G|------------------------|-------1--------1----------|
S
A|--------|--------|--------|-------------------------|
E|--------|--------|--------|----------------------2--|
C|--------|--------|--------|------------------2---2--|
G|--------|--------|--------|---------------4-----(-)-|
S
A|-----------------------------|-------------------------|
E|----------2-3-5---------3-5--|------5----3--5----------|
C|-----------------------------|-------------------------|
G|-4---------------------------|-4-----------------------|
P P S H P H
A|-----------------------------|-------------------------|
E|-5-------5--3--2--3--2----2--|-2-3---2------2----------|
C|------------------------4----|-----------4------4---2--|
G|------4----------------------|-------------------------|
S S P
A|------------------------|-----------------------|
E|-5----------------------|--------------------3--|
C|----------------(-)--2--|--------------2--------|
G|------4----------4------|-6---------------6-----|
S ~~~~~~~~~~~~~~~~
A|----------------------|-------------------------|
E|-2-----------------3--|-5----------------------|
C|----------------------|------------------------|
G|----------------------|--------------------7-11-|
P P ~~~~~ H H
A|------------------------------------------|-------------------------------|
E|-----------------5------------5-------|-5--------5-------------------|
C|--------------------------------------|------------------------------|
G|-16--11-7-4-12--11-7---9--7--6-4----b----r|(--)---------4--9-------9--11--|
H P
A|-------------------------------------|
E|-5-----------------------------------|
C|-------------------------------------|
G|-----4---6---7---6--7--6-4---6---7---|
~~~~~~~
A|-------------------------------------|--------------------------------|
E|--------------------------------|-----------------------------|
C|--------------------------------|-----------------------------|
G|-6---16---14---12----------12---14---|-11-----7---4---------11---12---|
~~~~~~~
A|--------------------------------|-----------------------------|--------------------|
E|-----------5-----------------|--------------------------|-------------------|
C|-----------------------------|--------------------------|-------------------|
G|-11-----7-------------11---12---|-11-----7---14--------12-----|-11-----------------|
H P
A|----------------------------------|----------------------------------------|--------------|
E|-5-----------------------3---5---|-------------------------------------|-------------|
C|---------------------------------|-------------------------------------|-------------|
G|-----4---5---7---9---10-----------|-4---5---7---9---10---12---9--10--9-7---|-14-----------|
H H H
A|-0-3---------------3-|-------3-------------2-|
E|-0-----0--0--0-------|--0------0--0--0-------|
C|---------------------|--0--------------------|
G|-2---2---------0-2---|--0--------------0-2---|
H H H
A|-0-3----------------3-|-------3-------------2-|
E|-0-----0--0--0--------|--0------0--0--0-------|
C|----------------------|--0--------------------|
G|-2---2----------0-2---|--0--------------0-2---|
H P S
A|--2----5-------------------|-2-------2--2----3--5-----|
E|--3----------3-------------|-0----0-------------------|
C|----------2-----2----------|----4---------------------|
G|--0----------------0-2-0-0-|-0----------0---(2)-4-----|
H H H
A|-0-3---------------3-|-------3-------------2-|
E|-0-----0--0--0-------|--0------0--0--0-------|
C|---------------------|--0--------------------|
G|-2---2---------0-2---|--0--------------0-2---|
H H H
A|-0-3----------------3-|-------3-------------2-|
E|-0-----0--0--0--------|--0------0--0--0-------|
C|----------------------|--0--------------------|
G|-2---2----------0-2---|--0--------------0-2---|
H P S
A|--2----5-------------------|-2-------2--2----3--5-----|
E|--3----------3-------------|-0----0-------------------|
C|----------2-----2----------|----4---------------------|
G|--0----------------0-2-0-0-|-0----------0---(2)-4-----|
H H H
A|-0-3---------------3-|-------3-------------2-|
E|-0-----0--0--0-------|--0------0--0--0-------|
C|---------------------|--0--------------------|
G|-2---2---------0-2---|--0--------------0-2---|
H H H
A|-0-3----------------3-|-------3-------------2-|
E|-0-----0--0--0--------|--0------0--0--0-------|
C|----------------------|--0--------------------|
G|-2---2----------0-2---|--0--------------0-2---|
A|-2--2--2--2--2--2--2--2-|
E|-0--0--0--0--0--0--0--0-|
C|-4--4--4--4--4--4--4--4-|
G|------------------------|

A|-0-------0--0-------------|
E|-0-------0--0--------3----|
C|---------------4--4-----2-|
G|-2-------2--2-------------|

A|--------------------------|
E|-3-------3--3--------3----|
C|-0-------0--0--4--4-----2-|
G|-5-------5--5-------------|

A|-0-------0--0------------------------------2-|
E|-0-------0--0-----5---7-----7--7--------3--3-|
C|------------------2---4-----4--4--4--4--0----|
G|-2-------2--2-----7---9-----9--9-------------|

A|-0-------0--0-------------|--------------------------|
E|-0-------0--0--------3----|-3-------3--3--------3----|
C|---------------4--4-----2-|-0-------0--0--4--4-----2-|
G|-2-------2--2-------------|-5-------5--5-------------|

A|-0-------0--0--5--5--|-2----------|
E|-0-------0--0--3-----|-0----------|
C|------------------6--|-4----------|
G|-2-------2--2--------|------------|

A|-2--2--2--2--2--2--2--2-|-0-------0--0-------------|
E|-0--0--0--0--0--0--0--0-|-0-------0--0--------3----|
C|-4--4--4--4--4--4--4--4-|---------------4--4-----2-|
G|------------------------|-2-------2--2-------------|

A|--------------------------|
E|-3-------3--3--------3----|
C|-0-------0--0--4--4-----2-|
G|-5-------5--5-------------|

A|-0-------0--0------------------------------2-|
E|-0-------0--0-----5---7-----7--7--------3--3-|
C|------------------2---4-----4--4--4--4--0----|
G|-2-------2--2-----7---9-----9--9-------------|

A|-0-------0--0-------------|--------------------------|
E|-0-------0--0--------3----|-3-------3--3--------3----|
C|---------------4--4-----2-|-0-------0--0--4--4-----2-|
G|-2-------2--2-------------|-5-------5--5-------------|

A|-0-------0--0--5--5--|-2----------|
E|-0-------0--0--3-----|-0----------|
C|------------------6--|-4----------|
G|-2-------2--2--------|------------|
~~~~~~~~~~~ S
A|---------------------|--------------------------|
E|-5------------5------|--------------------------|
C|--4------------4--6--|-7-------7--9---7---6-----|
G|------------------4--|-5-------5--7---5---4-----|
~~~~~~~~~~~~~~ S ~~~~~~~~~~~ S S
A|--------------------------|--------------------------|
E|--------------------------|--------------------------|
C|-7----------------7--9----|-4-----------4-6----6--7--|
G|-7----------------7--9----|-4-----------4-6----6--7--|
S ~~~~~~~~~~~~~~~~ ~~~~~~
A|-----------------------------|----------------------------|
E|-----------------------------|----------------------------|
C|-7--9-----------------9---6--|-7-------9-----------7------|
G|-7--9-----------------9---4--|-5-------7-b---------5------|
~~~~~~~~~~~~~~~~~~~~~~
A|-------------------------------|--------------------------|
E|-------------------------------|--------------------------|
C|-9-------9-------9-------9-----|-9------------------------|
G|-7-b-----7-b-----7-b-----7-b---|(7-)----------------------|
H H H
A|-0-3---------------3-|-------3-------------2-|
E|-0-----0--0--0-------|--0------0--0--0-------|
C|---------------------|--0--------------------|
G|-2---2---------0-2---|--0--------------0-2---|
H H H
A|-0-3----------------3-|-------3-------------2-|
E|-0-----0--0--0--------|--0------0--0--0-------|
C|----------------------|--0--------------------|
G|-2---2----------0-2---|--0--------------0-2---|
H P S
A|--2----5-------------------|-2-------2--2----3--5---|
E|--3----------3-------------|-0----0-----------------|
C|----------2-----2----------|----4-------------------|
G|--0----------------0-2-0-0-|-0----------0---(2)-4---|
H H H
A|-0-3---------------3-|-------3-------------2-|
E|-0-----0--0--0-------|--0------0--0--0-------|
C|---------------------|--0--------------------|
G|-2---2---------0-2---|--0--------------0-2---|
H H H
A|-0-3----------------3-|-------3-------------2-|
E|-0-----0--0--0--------|--0------0--0--0-------|
C|----------------------|--0--------------------|
G|-2---2----------0-2---|--0--------------0-2---|
H P S
A|--2----5-------------------|-2-------2--2----3--5---|
E|--3----------3-------------|-0----0-----------------|
C|----------2-----2----------|----4-------------------|
G|--0----------------0-2-0-0-|-0----------0---(2)-4---|
H H H
A|-0-3---------------3-|-------3-------------2-|
E|-0-----0--0--0-------|--0------0--0--0-------|
C|---------------------|--0--------------------|
G|-2---2---------0-2---|--0--------------0-2---|
H H H
A|-0-3----------------3-|-------3-------------2-|
E|-0-----0--0--0--------|--0------0--0--0-------|
C|----------------------|--0--------------------|
G|-2---2----------0-2---|--0--------------0-2---|
A|-2--2--2--2--2--2--2--2-|
E|-0--0--0--0--0--0--0--0-|
C|-4--4--4--4--4--4--4--4-|
G|------------------------|

A|-0-------0--0-------------|
E|-0-------0--0--------3----|
C|---------------4--4-----2-|
G|-2-------2--2-------------|

A|--------------------------|
E|-3-------3--3--------3----|
C|-0-------0--0--4--4-----2-|
G|-5-------5--5-------------|

A|-0-------0--0------------------------------2-|
E|-0-------0--0-----5---7-----7--7--------3--3-|
C|------------------2---4-----4--4--4--4--0----|
G|-2-------2--2-----7---9-----9--9-------------|

A|-0-------0--0-------------|--------------------------|
E|-0-------0--0--------3----|-3-------3--3--------3----|
C|---------------4--4-----2-|-0-------0--0--4--4-----2-|
G|-2-------2--2-------------|-5-------5--5-------------|

A|-0-------0--0--5--5--|-2----------|
E|-0-------0--0--3-----|-0----------|
C|------------------6--|-4----------|
G|-2-------2--2--------|------------|

A|-2--2--2--2--2--2--2--2-|-0-------0--0-------------|
E|-0--0--0--0--0--0--0--0-|-0-------0--0--------3----|
C|-4--4--4--4--4--4--4--4-|---------------4--4-----2-|
G|------------------------|-2-------2--2-------------|

A|--------------------------|
E|-3-------3--3--------3----|
C|-0-------0--0--4--4-----2-|
G|-5-------5--5-------------|

A|-0-------0--0------------------------------2-|
E|-0-------0--0-----5---7-----7--7--------3--3-|
C|------------------2---4-----4--4--4--4--0----|
G|-2-------2--2-----7---9-----9--9-------------|

A|-0-------0--0-------------|--------------------------|
E|-0-------0--0--------3----|-3-------3--3--------3----|
C|---------------4--4-----2-|-0-------0--0--4--4-----2-|
G|-2-------2--2-------------|-5-------5--5-------------|

A|-0-------0--0--5--5--|
E|-0-------0--0--3-----|
C|------------------6--|
G|-2-------2--2--------|
S S S
A|---------------------|-------------7---------|
E|-5-7---------7---7---|-5-7-------7-10--------|
C|-2-4---------4---4---|-2-4-------4-7---66---|
G|-7-9---------9---9---|-7-9-------9-12---6----|

A|-----------------------|-------------------------------|
E|---5-------5---5-------|--------5-5-5--3-3-3--2-2-2----|
C|---2-------2---2-------|-------------------------------|
G|---7-------7---7-------|-4-4-4-----------------------4-|
S S S
A|---------------------|-------------7---------|
E|-5-7---------7---7---|-5-7-------7-10--------|
C|-2-4---------4---4---|-2-4-------4-7---66---|
G|-7-9---------9---9---|-7-9-------9-12---6----|

A|-----------------------|-------------------------------|
E|---5-------5---5-------|--------5-5-5--3-3-3--2-2-2--3-|
C|---2-------2---2-------|-------------------------------|
G|---7-------7---7-------|-4-4-4-------------------------|
S S S
A|---------------------|-------------7---------|
E|-5-7---------7---7---|-5-7-------7-10--------|
C|-2-4---------4---4---|-2-4-------4-7---66---|
G|-7-9---------9---9---|-7-9-------9-12---6----|

A|-----------------------|-------------------------------|
E|---5-------5---5-------|--------5-5-5--3-3-3--2-2-2----|
C|---2-------2---2-------|-------------------------------|
G|---7-------7---7-------|-4-4-4-----------------------4-|
S S S
A|---------------------|-------------7---------|
E|-5-7---------7---7---|-5-7-------7-10--------|
C|-2-4---------4---4---|-2-4-------4-7---66---|
G|-7-9---------9---9---|-7-9-------9-12---6----|

A|-----------------------|-------------------------------|
E|---5-------5---5-------|--------5-5-5--3-3-3--2-2-2--3-|
C|---2-------2---2-------|-------------------------------|
G|---7-------7---7-------|-4-4-4-------------------------|
S S
A|-9-4----------4----4---------|-9-4--------4----7-----6--------|
E|-5------------------------|-5--------------------------|
C|--------------------------|----------------------------|
G|---4---------4---4--------|---4-------4---7----6-------|

A|-9-------9-----------|-7---7---7----6---6---6----4--4--4---9-9-9---|
E|-5-------5---5-------|----------------------------5-5-5---|
C|-------------2-------|------------------------------------|
G|---------------------|-7--7--7---6--6--6---4-4-4--------4-|
S S
A|-9-4----------4----4--------|-9-4--------4----7-----6---------|
E|-5-----------------------|-5---------------------------|
C|-------------------------|-----------------------------|
G|---4---------4---4-------|---4-------4---7----6--------|
~~~~~~~~~~
A|--------------------------|--------7-7-7--5-5-5--4-4-4--5-|
E|---5-------5---5----------|-2-2-2-------------------------|
C|--66------66--66----------|-2-2-2-------------------------|
G|--------------------------|--------6-6-6--4-4-4--2-2-2--4-|
S S S
A|---------------------|-------------7---------|
E|-5-7---------7---7---|-5-7-------7-10--------|
C|-2-4---------4---4---|-2-4-------4-7---66---|
G|-7-9---------9---9---|-7-9-------9-12---6----|

A|-----------------------|-------------------------------|
E|---5-------5---5-------|--------5-5-5--3-3-3--2-2-2----|
C|---2-------2---2-------|-------------------------------|
G|---7-------7---7-------|-4-4-4-----------------------4-|
S S S
A|---------------------|-------------7---------|
E|-5-7---------7---7---|-5-7-------7-10--------|
C|-2-4---------4---4---|-2-4-------4-7---66---|
G|-7-9---------9---9---|-7-9-------9-12---6----|

A|-----------------------|-------------------------------|
E|---5-------5---5-------|--------5-5-5--3-3-3--2-2-2--3-|
C|---2-------2---2-------|-------------------------------|
G|---7-------7---7-------|-4-4-4-------------------------|
A|--------------7-----7-|--------------10---9-----|
E|-0--0--0--0-----------|-0--0--0--0------9------|
C|--------------11-----11-|--------------14---------|
G|--------------9-----9-|--------------12--11------|
A|--------------5-----|--------12-12-12--10-10-10--9-9-9---10--|
E|-0--0--0--0---------|----------------------------------------|
C|--------------9-----|-----------------------------------(--)-|
G|--------------7-----|-4-4-4------------------------------4---|
A|--2------9-------7-----|--7-----5-------4--2------------|
E|-----------------------|------------------------5---2---|
C|-----------------------|-(-)----------------------------|
G|-----------------------|--------------------------------|
A|---------9-------7---|--7----5-------4--2-----------|
E|-5-------------------|-----------------------5--2---|
C|---------------------|-(-)--------------------------|
G|---------------------|------------------------------|
A|----------9-------7-----|--7----5-------4--2-----------|
E|-3----------------------|-----------------------5--2---|
C|------------------------|-(-)--------------------------|
G|------------------------|------------------------------|
A|-4---------9-------7-----|--7----5--------4--2--------|
E|-------------------------|----------------------5--2--|
C|-------------------------|-(-)------------------------|
G|-------------------------|----------------------------|
A|----5----9---------10---|----10---9-------7----5--4-------|
E|------------------------|-------------------------------5-|
C|------------------------|---(--)--------------------------|
G|------------------------|---------------------------------|
A|-4-------9---------10-|----10--9-------7----5--4------|
E|----------------------|-----------------------------5-|
C|----------------------|---(--)------------------------|
G|----------------------|-------------------------------|
A|-2--------9---------10---|----10--9-------7----5--4------|
E|-------------------------|-----------------------------5-|
C|-------------------------|---(--)------------------------|
G|-------------------------|-------------------------------|
S
A|-------------------------|----------------------------|
E|-----------2---------3---|----3--5--------3--2--0--2--|
C|-1-----------------------|---(-)----------------------|
G|-------------------------|----------------------------|
S
A|------------------|--------------------------|
E|------------------|--------------------------|
C|----------------2-|---4-------4------4-------|
G|---------4---4----|----b-------b------b------|
H H P H
A|----------------------------------|
E|-2-3---2-3-2------2-3-------2-----|
C|---------------2----------------2-|
G|----------------------------------|
H S H
A|-----------------------------------|----------------------|
E|-2-3---2-----5----5----3---5-------|-5----3--3-5----3---2-|
C|----------2------------------------|----------------------|
G|------------------------------4----|----------------------|

A|-----------------------|----------------------------------|
E|---3---5------3--------|-----5----------------------------|
C|-----------4-----4---2-|----------------------------2---4-|
G|-----------------------|-------------4---4-------4--------|
P
A|----------------------------------|
E|----------------------------------|
C|-4------4--2--4---2---2-----2---4-|
G|--b----(-)---------------4--------|
P P P
A|---------------------------------------------|
E|---------5--2--------5--2--------5--2------2-|
C|-4------------4-----------4-----------4------|
G|--b----4-------b---4-------b---4-------b-----|
P P P P
A|------------------------------------------------|
E|-5--2-----2-5--2--------5--2--------5--2--------|
C|------4----------4-----------4-----------4------|
G|-------b----------b---4-------b---4-------b---4-|
P P P P P
A|-----------------------------------------|
E|------5--------------5--------------5----|
C|-----------------------------------------|
G|-7--4----4-7--4-7--4----4-7--4-7--4----4-|
P P P P P
A|-----------------------------------------|
E|------5--------------5--------------5----|
C|-----------------------------------------|
G|-7--4----4-7--4-7--4----4-7--4-7--4----4-|

A|-----------------------------|---------------------------|
E|---b-------b--------------5--|---5--3-5--3-2-3-2---2-----|
C|-----------------------------|-------------------4---4-2-|
G|-7-------7-----7--5-4-5-4----|-4-------------------------|
P
A|----------------------|-------------------|
E|-5------------3-2---2-|-3-5----5--3-2-----|
C|------------------4---|---------------4-2-|
G|-------4---4----------|------4------------|
~~~~~~
A|-------------------|------------------------|
E|-5---------3-2---2-|-3-5--------------------|
C|---------------4---|------------------------|
G|-----4--4----------|------4--5--4------4--5-|

A|-----------------------------|-------------------------|
E|------------5----5--3-5--3-2-|-3-2---2-----------------|
C|-----------------------------|-----4---4-2-4-2---2-----|
G|-7--5-4-5-4----4-------------|-----------------6---6-4-|

A|---------------------------|-----------------------------|
E|-5---------2-3-5----5--3-2-|-3-2---2-3-5----5--3-2-3-2---|
C|-------2-4-----------------|-----4---------------------4-|
G|---4-6------------4--------|--------------4--------------|

A|--------------------------|--------------------------------|
E|--------------------------|--------------------------------|
C|-4-----4-----4-----4------|-4--4-4-4-4-4-4-4-4-4-4-4-4-4-4-|
G|--b-----b-----b-----b-----|--b-----------------------------|
P
A|----------x-x----------x-x-x-7---7---7---x-x-7---7---7---|
E|---------------2--2--2-----------------------------|
C|-4-2---2--x-x--2--2--2-x-x-x--2--2--2-x-x--2--2--2-|
G|-----4--------7--7--7--------7--7--7------7--7--7--|
P
A|----------------------------------------|
E|-5-------5-------5-----------5--2---2-3-|
C|----------------------------------4-----|
G|----------------------------------------|
H P
A|------------------------|-------------------------|
E|-2-3-2------------------|-----------5---5---5-----|
C|-------4-2---2--------2-|-4-2---2---------6---6-4-|
G|-----------4--------4---|-----4---4---4-----------|
S
A|----------------------------|
E|----------------------------|
C|-6-4-2-4-2---2-2-2-2-4------|
G|-----------4-------------9--|
P P P P P
A|------------------------------------------------|
E|-------------------------------------------|
C|-------------------------------------------|
G|-12--9-4-9--12--9--11--9-4-9--12--9--11--9-4-9--|
P P P P P
A|------------------------------------------------|
E|-------------------------------------------|
C|-------------------------------------------|
G|-12--9-4-9--12--9--11--9-4-9--12--9--11--9-4-9--|
P P P
A|-----------------------------------------------------|
E|-----------------------------------------|
C|-----------------------------------------| G|-14--11-7-11--14--11-7-11--14--11-7-11--14--11-7-11--|
P P P P P
A|--------------------------------------------------------|
E|-------------------------------------------|
C|-------------------------------------------|
G|-16--12-9-12--16--12--14--12-9-12--16--12--14--12-9-12--|
P P P P P
A|--------------------------------------------------------|
E|-------------------------------------------|
C|-------------------------------------------|
G|-16--12-9-12--16--12--14--12-9-12--16--12--14--12-9-12--|
P P P P
A|-----------------------------------------------------|
E|-21--------21--------21--------21--------|
C|-----------------------------------------| G|----14-11-14-----14-11-14-----14-11-14-----14-11-14--|

A|-------------------------|----------------------------|
E|-22b---22b---22b---22b---|-22b---22b---22b---22b------|
C|-------------------------|----------------------------|
G|-------------------------|----------------------------|

A|------------------------------------------------------------|
E|-22b(22)----22----------------------------------|
C|------------------------------------------------|
G|---------16-----17--16--17--16--14--16--14--12--14--12--11--|

A|-------------------------------------|
E|----------------------------------|
C|----------------------------------|
G|-12--11--9--11--9--7--9--7--6-7--6-4-|

A|---------------------------|------------------------|
E|----5---5---3-5--3-2-3-2---|-2----------------------|
C|-------------------------4-|---4-2-4-2---2--2--2--2-|
G|-6-4--4---4----------------|-----------4------------|

A|---------------------------|-----------------------------|
E|---------------------------|-----------------------2---2-|
C|-4------4------------------|--4--------4--4--------------|
G|--b------b-----------------|-(-)------(-)--b-------------|
P P
A|--------------------------------------------------|
E|-5-----5---2---5----5---2---5-----5----5-----5----|
C|--------------------------------------------------|
G|--------------------------------------------------|
P P
A|-------------------------------------|
E|------5--2----2-5--2---------------5-|
C|-----------5---------4-2---2-4-2-----|
G|-7--4--------------------4-------4---|
A|-12-12---12-9-8-7-5-7-5---5--7/9---12---|
E|------------------------7---------------|
C|----------------------------------------|
G|-------4------------------------------4-|
S P
A|-------------------------------------------|
E|--------5----6-----------5----------------|
C|-2-4-6------------------------------------|
G|----------------4--5--4-----4----7--9--12--|
P P P P
A|--------------------------------------------------------|
E|-(--)----------------------------------------------|
C|---------------------------------------------------|
G|--12--9---7-9--12--9--12--9---7-9--12--9--12--9---7-9---|

A|-----------------------------------------------------|
E|-----------------------------------------------------|
C|-9------------9------------9------------9------------|
G|-7-b----------7-b----------7-b----------7-b----------|

 

Tab comments (0)
No comment yet :(
Need help, a tip to share, or simply want to talk about this song? Start the discussion!

You must be logged in to join the discussion
or Register

 

About this song

No information about this song.