Master Of Puppets Uke tab by Metallica

Ukulele Tab without chords.

Add tab to your SongBook
Tablature / ChordsFont size: A- A A+

Don't know how to read a tab or a chord ? Check out these uke lessons:

Detailed guide to strumming and picking
How to read uke tabs
Reading chord diagrams

|-2--------5---4---3-------------|
|-0------------------------------|
|-4--------9---8---7-------------|
|----------7---6---5-------------|

|-----7-----6--------5---4---3---------------------------------------|
|-0-0---0-0---0-0---------------------0-0-7-0-0-6-0-0-5-0-4-0-3-0-2--|
|--------------------9---8---7---------------------------------------|
|--------------------7---6---5---------------------------------------|

|-----2-----3-----4-----3-----2-2-----2-----3------5\4---5\4---5\4---|
|-0-1---0-1---0-1---0-1---0-1-----0-1---0-1---0-0--3\2-0-3\2-0-3\2---|
|--------------------------------------------------------------------|
|--------------------------------------------------------------------|

|-----2-----3-----4-----3-----2-2-----2-----3-----4-----3-----2------|
|-0-1---0-1---0-1---0-1---0-1-----0-1---0-1---0-1---0-1---0-1--------|
|-------------------------------------------------------------6------|
|-------------------------------------------------------------4------|

|-----2-----3-----4-----3-----2-2-----2-----3------5\4---5\4---5\4---|
|-0-1---0-1---0-1---0-1---0-1-----0-1---0-1---0-0--3\2-0-3\2-0-3\2---|
|--------------------------------------------------------------------|
|--------------------------------------------------------------------|

|-----2-----3-----4-----3-----2-2-----2-----3-----4-----3-----2------|
|-0-1---0-1---0-1---0-1---0-1-----0-1---0-1---0-1---0-1---0-1--------|
|-------------------------------------------------------------6------|
|-------------------------------------------------------------4------|

|-----2-----3-----4-----3-----2-2-----2-----3------5\4---5\4---5\4---|
|-0-1---0-1---0-1---0-1---0-1-----0-1---0-1---0-0--3\2-0-3\2-0-3\2---|
|--------------------------------------------------------------------|
|--------------------------------------------------------------------|

|-5\4---5\4---5\4--2----7------7------7------7------7----------------|
|-3\2-0-3\2-0-3\2--0--0------0------0------0------0------------------|
|------------------4-----------------------------------v-------------|
|-------------------------3------3------3------3------3--------------|

|-----------------5/7--8\7--5/7------------------5/7--5/7------------|
|-0-0-0-0-0-0-0-0-3/5--6\5--3/5--0-0-0-0-0-0-0-0-3/5--3/5------------|
|--------------------------------------------------------------------|
|--------------------------------------------------------------------|

|------------------0-2--3\2-0-2-------------------0h2-0h2------------|
|-2-2-2-2-2-2-2-2----------------2-2-2-2-2-2-2-2---------------------|
|------------------6-6--7-6-6-6-------------------6---6--------------|
|--------------------------------------------------------------------|

|-2-2-2-2-2-2-2-2---|
|-2-2-2-2-2-2-2-2---|
|-------------------|
|-4-4-4-4-4-4-4-4---|

|-7-------5--7--7-9---10--9h10-----------10---9------------6--9---------|
|-0-0-0-0----------------------8-8-8-8-8---7----8-8-8-8----7---------|
|-11-------9--11-------------------------12---11------------10--11---------|
|-9-------7--9------4-----------------------------------8------------|

|-7-------5--7--7-9---10--9h10-----------10---9--9-7-6--6------2-2---1-1|
|-0-0-0-0----------------------8-8-8-8-8---7-----------8-7--0-0---1-1|
|-11-------9--11-------------------------12---11----------------4-4---5-5|
|-9-------7--9------4------------------------------------------------|

|-2------4------5---3--0-0-2-0-0-0---5------3-----2---2------7-----3-|
|-0--0-0-2--0-0-3-----------------------0-0---0-0-----0--0-0---0-0---|
|-------------------7------6-----4---9------7-----6----------11-----7-|
|------------------------------------------------------------------5-|

|-2--2----3--3--------2------5-----3--------2--2----3--3-------------|
|-0--0----1--1--------0--0-0---0-0----------0--0----1--1-------------|
|-4--4----5--5---------------9-----7---------------------------------|
|----------------------------------5---------------------------------|

|-----2-----3-----4-----3-----2-2-----2-----3-----4-----3-----2------|
|-0-1---0-1---0-1---0-1---0-1-----0-1---0-1---0-1---0-1---0-1--------|
|-------------------------------------------------------------6------|
|-------------------------------------------------------------4------|

|-----2-----3-----4-----3-----2-2-----2-----3------5\4---5\4---5\4---|
|-0-1---0-1---0-1---0-1---0-1-----0-1---0-1---0-0--3\2-0-3\2-0-3\2---|
|--------------------------------------------------------------------|
|--------------------------------------------------------------------|

|-5\4---5\4---5\4---|
|-3\2-0-3\2-0-3\2---|
|-------------------|
|-------------------|

|-----------------5/7--8\7--5/7------------------5/7--5/7------------|
|-0-0-0-0-0-0-0-0-3/5--6\5--3/5--0-0-0-0-0-0-0-0-3/5--3/5------------|
|--------------------------------------------------------------------|
|--------------------------------------------------------------------|

|------------------0-2--3\2-0-2-------------------0h2-0h2------------|
|-2-2-2-2-2-2-2-2----------------2-2-2-2-2-2-2-2---------------------|
|------------------6-6--7-6-6-6-------------------6---6--------------|
|--------------------------------------------------------------------|

|-2-2-2-2-2-2-2-2---|
|-2-2-2-2-2-2-2-2---|
|-------------------|
|-4-4-4-4-4-4-4-4---|

|-7-------5--7--7-9---10--9h10-----------10---9------------6--9---------|
|-0-0-0-0----------------------8-8-8-8-8---7----8-8-8-8----7---------|
|-11-------9--11-------------------------12---11------------10--11---------|
|-9-------7--9------4-----------------------------------8------------|

|-7-------5--7--7-9---10--9h10-----------10---9--9-7-6--6------2-2---1-1|
|-0-0-0-0----------------------8-8-8-8-8---7-----------8-7--0-0---1-1|
|-11-------9--11-------------------------12---11----------------4-4---5-5|
|-9-------7--9------4------------------------------------------------|

|-2------4------5---3--0-0-2-0-0-0---5------3-----2---2------7-----3-|
|-0--0-0-2--0-0-3-----------------------0-0---0-0-----0--0-0---0-0---|
|-------------------7------6-----4---9------7-----6----------11-----7-|
|------------------------------------------------------------------5-|

|-2--2----3--3--------2------5-----3--------2--2----3--3-------------|
|-0--0----1--1--------0--0-0---0-0----------0--0----1--1-------------|
|-4--4----5--5---------------9-----7---------------------------------|
|----------------------------------5---------------------------------|
H P
|--2----------5--------5-----------5---5-----2-0---2-0-2---2-------2-2|
|----0-----------0-2-0-----3---------------0--------------------------|
|4--------2--------------------0-----------------------------2-3------|
|------0----2---2--------2-------0---0---0-------2-------2-------2----|

|---------------------------------------------------------------------------|}
|--------------------------------------------------------------------|}
|--------------------------------------------------------------------|}
|-9--16--12--9--14--11--7--7--7--7--14--11--7--12--9--5--5--5--5------------|}
H P
|------------------------------------------------------------------------|}
|--------------------------------------------------------------------|}
|--------------------------------------------------------------------|}
|-12--9--5--11--9--11--9--8--5--4--5--7--5--7--8--9--11------------------|}
~~
|----------------------------------------------------------------------------|
|--------------------------------------------------------------------|
|--------------------------------------------------------------------|
|-9--9--9--9--11--12--11--12--14--11--16--12--9--5---------------------------|
~~
|------------------------------------------------------------------------|
|---------------------------3--5--3------5--3------------------------|
|------------------------------------9-------------------------------|
|-7---7---12--11--4--12--11--4-----------7-b-------9---------------------|
H P ~~
|--------------------------------------------------------------------|
|-3--------3--3--5--3--------5--3------------------------------------|
|----------------------6-----------6---------------------------------|
|----9--7-----------------7-----------5------------------------------|
~~ S SS
|-----------------------------------------------9-----------------------|
|-5--------5--------------3-----------------6------------------------|
|--------------------4-5---------------------------------------------|
|---4-5------4-5--7----------12--8--9--8--4-----9---16-----------------|

|---------------------------------------------------------------------------|}
|--------------------------------------------------------------------|}
|--------------------------------------------------------------------|}
|-9--16--12--9--14--11--7--7--7--7--14--11--7--12--9--5--5--5--5------------|}
H P
|------------------------------------------------------------------------|}
|--------------------------------------------------------------------|}
|--------------------------------------------------------------------|}
|-12--9--5--11--9--11--9--8--5--4--5--7--5--7--8--9--11------------------|}
H P
|--2----------5--------5-----------5---5-----2-0---2-0-2---2-------2-2|
|----0-----------0-2-0-----3---------------0--------------------------|
|4--------2--------------------0-----------------------------2-3------|
|------0----2---2--------2-------0---0---0-------2-------2-------2----|

|-2--2--2--2--2--2--2--2--2--2--2--2--2--2--2--2---------------------|
|-0--0--0--0--0--0--0--0--0--0--0--0--0--0--0--0---------------------|
|--------------------------------------------------------------------|
|--------------------------------------------------------------------|

|-4-4-5-4-4-4-5-4-4-4-4-5-4-4-4-5-4-4-4-5-4-4-4-5-4-4-4-4-5-4-4-4-5-4-|
|-2-2-3-2-2-2-3-----2-2-3-2-2-2-3---2-2-3-2-2-2-3-----2-2-3-2-2-2-3---|
|---------------8-8---------------8---------------8-8---------------8-|
|---------------------------------------------------------------------|

|-5--------4--------2------------------------------------------------|
|-3--------2--------0------------------------------------------------|
|--------------------------------------------------------------------|
|--------------------------------------------------------------------|
P P P P
|-----------------------------------------------------------------------------|
|-------------------------------------------------------------------------|
|-------------------------------------------------------------------------|
|-14--9--5--4--5--9--14--9--5--4--5--9--14--9--5--4--5--9--12--9--5--4--5--9--|
P P P P
|-----------------------------------------------------------------------------|
|-------------------------------------------------------------------------|
|-------------------------------------------------------------------------|
|-14--9--5--4--5--9--14--9--5--4--5--9--14--9--5--4--5--9--12--9--5--4--5--9--|

|----------------------------------------------------------------------------------------------|
|-------------------------------------------------------------------------|
|-------------------------------------------------------------------------|
|-16--16--16--14--14--14--12--12--12--11--11--11--14--14--14--12--12--12--11--11--11--7--7--7--|
P P P P ~
|---------------------------------------------------------------------------|
|------------------------------5------23b-23b-23b--24b-24b-24b------------|
|-------------------------------------------------------------------------|
|-9----9--7--6--14--12--7--6--4---------------------------------------------|
H P H ~ ~~
|-------------------------------------------------------------------------|
|--------------------0-0-2---------5------5--3----------------------------|
|-------------------------------------------------------------------------|
|-2-4-2b-4-3-2-2-4-2--------7--5-4----5-4------4--------------------------|
P P P P P P P P P P P P
|---------------------------------------------------------------------------|
|-------------------------------------------------------------------------|
|-------------------------------------------------------------------------|
|-7--5-4-7--5-4-9--7--6-9--7--6-11--9--8--11--9--8--------------------------|
P P P P P P P P
|-------------------------------------------------------------------------------------------------|
|-------------------------------------------------------------------------|
|-------------------------------------------------------------------------|
|-14--12--11--16--14--11--14--12--11--16--14--11--14--12--11--16--14--11--14--12--11--16--14--11--|
P P P
|--------------------------------------------------------------------------------------|
|-------------------------------------------------------------------------|
|-------------------------------------------------------------------------|
|-9---11--9---11--9---11--9---11--16--11--9--11--16--11--9--11--16--11--9--11----------|

|-------------------------------------------------------------------------------------|
|-------------------------------------------------------------------------|
|-------------------------------------------------------------------------|
|-9---11--9---11--9---11--9---11--10---12--10---12--10---12--10---12------------------|
SSSSSSSSSSSS
|------------------------------------43------43-------------------------------------|
|-------------------------------------------22----------------------------|
|-------------------------------------------------------------------------|
|-11---13--11---13--12---14--12--14------15------15---------------------------------|
|-----4-----5-----4-----5-----2-2-----4-----5-----4-----5-----2-----------|
|-0-0-2-0-0-3-0-0-2-0-0-3-0-0-----0-0-2-0-0-3-0-0-2-0-0-3-0-0-------------|
|-----------------------------6-6-----------------------------6-----------|
|-------------------------------------------------------------------------|
|-----4-----5-----4-----5-----2-2-----4-----5-----4-----5-----2-----------|
|-0-0-2-0-0-3-0-0-2-0-0-3-0-0-----0-0-2-0-0-3-0-0-2-0-0-3-0-0-------------|
|-----------------------------6-6-----------------------------6-----------|
|-------------------------------------------------------------------------|
|-------------------------2-3-5-7-9-10-3--333-2-3-5-3-2--------------------|
|-0-0-0-0-0-0-0-000-2-3-5-------------------------------3-2----------------|
|--------------------------------------7-----------------------------------|
|--------------------------------------------------------------------------|
|-------------------------2-3-5-7-9-10-3--333-2-3-5-3-2--------------------|
|-0-0-0-0-0-0-0-000-2-3-5-------------------------------3-2----------------|
|--------------------------------------7-----------------------------------|
|--------------------------------------------------------------------------|
|-------------------------2-3-5-7-9-10-3--333-2-3-5-3-2--------------------|
|-0-0-0-0-0-0-0-000-2-3-5-------------------------------3-2----------------|
|--------------------------------------7-----------------------------------|
|--------------------------------------------------------------------------|
|-------------------------2-3-5-7-9-10-3--333-2-3-5-3-2-----2--333-2-3-5-3-2----|
|-0-0-0-0-0-0-0-000-2-3-5-------------------------------3-2-0----------------3-2|
|--------------------------------------7----------------------------------------|
|-------------------------------------------------------------------------------|
|-----2-----3-----4-----3-----2-2-----2-----3------5\4---5\4---5\4---|
|-0-1---0-1---0-1---0-1---0-1-----0-1---0-1---0-0--3\2-0-3\2-0-3\2---|
|--------------------------------------------------------------------|
|--------------------------------------------------------------------|
|-----2-----3-----4-----3-----2-2-----2-----3------5\4---5\4---5\4---|
|-0-1---0-1---0-1---0-1---0-1-----0-1---0-1---0-0--3\2-0-3\2-0-3\2---|
|--------------------------------------------------------------------|
|--------------------------------------------------------------------|
|-5\4---5\4---5\4---|
|-3\2-0-3\2-0-3\2---|
|-------------------|
|-------------------|
|-----------------5/7--8\7--5/7------------------5/7--5/7------------|
|-0-0-0-0-0-0-0-0-3/5--6\5--3/5--0-0-0-0-0-0-0-0-3/5--3/5------------|
|--------------------------------------------------------------------|
|--------------------------------------------------------------------|
|------------------0-2--3\2-0-2-------------------0h2-0h2------------|
|-2-2-2-2-2-2-2-2----------------2-2-2-2-2-2-2-2---------------------|
|------------------6-6--7-6-6-6-------------------6---6--------------|
|--------------------------------------------------------------------|

|-2-2-2-2-2-2-2-2---|
|-2-2-2-2-2-2-2-2---|
|-------------------|
|-4-4-4-4-4-4-4-4---|

|-7-------5--7--7-9---10--9h10-----------10---9------------6--9---------|
|-0-0-0-0----------------------8-8-8-8-8---7----8-8-8-8----7---------|
|-11-------9--11-------------------------12---11------------10--11---------|
|-9-------7--9------4-----------------------------------8------------|

|-7-------5--7--7-9---10--9h10-----------10---9--9-7-6--6------2-2---1-1|
|-0-0-0-0----------------------8-8-8-8-8---7-----------8-7--0-0---1-1|
|-11-------9--11-------------------------12---11----------------4-4---5-5|
|-9-------7--9------4------------------------------------------------|

|-2------4------5---3--0-0-2-0-0-0---5------3-----2---2------7-----3-|
|-0--0-0-2--0-0-3-----------------------0-0---0-0-----0--0-0---0-0---|
|-------------------7------6-----4---9------7-----6----------11-----7-|
|------------------------------------------------------------------5-|

|-2--2----3--3--------2------5-----3--------2--2----3--3----------2--|
|-0--0----1--1--------0--0-0---0-0----------0--0----1--1----------0--|
|-4--4----5--5---------------9-----7---------------------------------|
|----------------------------------5---------------------------------|

|-----------------5/7--8\7--5/7------------------5/7--5/7------------|
|-0-0-0-0-0-0-0-0-3/5--6\5--3/5--0-0-0-0-0-0-0-0-3/5--3/5------------|
|--------------------------------------------------------------------|
|--------------------------------------------------------------------|

|-5\4---5\4---5\4-2--------------------------------------------------|
|-3\2-0-3\2-0-3\2-0--------------------------------------------------|
|--------------------------------------------------------------------|
|--------------------------------------------------------------------|

 

Tab comments (2)
You must be logged in to join the discussion
or Register

 

reham avatar
yep
20 Feb 2019
Fesgosh avatar
Freakin hard !
I'll keep this one for later...
27 Dec 2012
About this song

No information about this song.