Symphony Of Destruction Uke tab by Megadeth

Ukulele Tab without chords.

10/10
PrintAdd tab to your SongBook

Tablature / Chords (Full Song)

Font size: A- A A+

Artist: 
Year:  1992
Key: unknownTablature (no chords)
A|--------8-7--7----|-8-7--7-----------|-8-7--7------------------------|
E|--------8-7--7----|-8-7--7-----------|-8-7--7------------------------|
C|-5-7-5--5-4--4----|-5-4--4-----5-7-5-|-5-4--4------------------------|
G|------------------|------------------|-------------------------------|
| |_| |_| | |_| | | |_| |_| |

A|-8-7--7-----------|-8-7--7-----------|-8-7--7------------------------|
E|-8-7--7-----------|-8-7--7-----------|-8-7--7------------------------|
C|-5-4--4-----------|-5-4--4-----5-7-5-|-5-4--4------------------------|
G|------------------|------------------|-------------------------------|
|_| | |_| | | |_| |_| |

A|-8-7--7-----------|-8-7--7-----------|-8-7--7------------------------|
E|-8-7--7-----------|-8-7--7-----------|-8-7--7------------------------|
C|-5-4--4-----------|-5-4--4-----5-7-5-|-5-4--4------------------------|
G|------------------|------------------|-------------------------------|
|_| | |_| | | |_| |_| |

A|-8-7--7-----------|-8-7--7-----------|-8-7--7------------------------|
E|-8-7--7-----------|-8-7--7-----------|-8-7--7------------------------|
C|-5-4--4-----------|-5-4--4-----5-7-5-|-5-4--4------------------------|
G|------------------|------------------|-------------------------------|
|_| | |_| | | |_| |_| |

⇢ Not happy with this tab? View 1 other version(s)

Uke tab by , 03 Aug 2018

Tab comments (0)

No comment yet :(
Need help, a tip to share, or simply want to talk about this song? Start the discussion!

Something to say?
Share your strumming patterns, chords or tips to play this tab! ;)

About this song: Symphony Of Destruction

No information about this song.

Did you cover Symphony Of Destruction on your Ukulele? Share your work!
Submit a cover