Super Mario Bros. Theme Uke tab by Koji Kondo

Ukulele Tab without chords.

7.8/10
PrintAdd tab to your SongBook

Tablature / Chords (Simplified Song)

Font size: A- A A+

Artist: 
Year:  2011
Key: unknownTablature (no chords)
# This has most of the Mario Theme in it, enjoy :D

A-3----------------3-7-12-8-10-7-3-5-2-15
E---3-0--5-7-6-5-3---------------------
C--------------------------------------
G-------------------------------------- x2

A-10-9-8----7---------------10-9-8----7-15-15-15-
E--------10-------8---8-10---------10------------
C-------------7-9---9----------------------------
G------------------------------------------------

A-10-9-8----7----------------------------
E--------10-------8---8-10-11-10-8-2-2-2-
C-------------7-9---9--------------------
G----------------------------------------

A-3333-5-7-3-0-----3333-5-7-10---3333-5-7-3-0----777-3-7-10---
E--------------3--------------3----------------3------------2-
C-------------------------------------------------------------
G-------------------------------------------------------------

A-7-3-------8-8-----12-12-12-10-8----------
E-----3-4-5-----5-7---------------12-8-5-3-
C------------------------------------------
G------------------------------------------

A-7-3-------8-8-----8-8-8-7-5-3-----
E-----3-4-5----5-7--------------3---
C---------------------------------0-
G-----------------------------------

# -Ian

Uke tab by , 14 Jun 2010

Tab comments (3)

Something to say?
Share your strumming patterns, chords or tips to play this tab! ;)
Filter by:
Del268 avatar
@rosepatch96 ikr I have a soprano too
09 Jul 2019
Comment
rosepatch96 avatar
flag for US(ISO2) (Spring)
How would you do this if you had a soprano uke?! i only have 12 frets on mine :(
29 Jul 2012
Comment
Rachel J avatar
flag for US(ISO2) (Orlando)
Make the strings in the right order it's easier gcea
27 Jun 2012
Comment

Top Tabs & Chords by Koji Kondo, don't miss these songs!

About this song: Super Mario Bros. Theme

No information about this song.

Did you cover Super Mario Bros. Theme on your Ukulele? Share your work!
Submit a cover