You Are My Sunshine (Riff) Uke tab by Johnny Cash

1 Chords used in the song:

Add tab to your SongBook
Tablature / ChordsFont size: A- A A+

Don't know how to read a tab or a chord ? Check out these uke lessons:

Detailed guide to strumming and picking
How to read uke tabs
Reading chord diagrams

you are my sunshine, my only sunshine
A|-------0--0h2--2----2--0--2-----
E|----3-----------------------3-3-
C|-2------------------------------
G|--------------------------------

you make me happy when skies are grey
A|-----0--2--3--7--7--5--3--2-----
E|-3------------------------------
C|--------------------------------
G|--------------------------------

you'll never know dear, how much i love you
A|-----0--2--3--7--7--5--3--2-----
E|-3---------------------------3--
C|--------------------------------
G|--------------------------------

please don't take my sunshine away
A|-----0--0h2--2--0--0--1---------
E|--3----------------------3------
C|--------------------------------
G|--------------------------------

repeat for verses

 

Tab comments (1)
You must be logged in to join the discussion
or Register

 

Nguyendz110693 avatar
thank you!
07 Jul 2019
About this song

No information about this song.