How To Train Your Dragon Medley Uke tab by John Powell

4 Chords used in the song: G, C, D, A

PrintAdd tab to your SongBook
Tablature / ChordsFont size: A- A A+

Don't know how to read a tab or a chord ? Check out these uke lessons:

Detailed guide to strumming and picking
How to read uke tabs
Reading chord diagrams

A|------------------------------------------------------------|
E|------------------------------------------------------------|
C|-------------------------------------------5--5--4--2--0-|
G|--5--0--5--5--7--4--0--4--5--2--0--0------------------|

A|------------------------------------------------------------|
E|------------------------------------------------------------|
C|-------------------------------------------5--5--4--2--0-|
G|--5--0--5--5--7--4--0--4--5--2--0--0------------------|

Chords: G G C C D D C C G G G G C C D D C C G G



A|--7*--7*--9--9--7--5--| G
E|-------------------------|
C|-------------------------|
G|-------------------------|

A|--7*--7*--9--9--7--5--| G
E|-------------------------|
C|-------------------------|
G|-------------------------|

C C C C

A|--5*--7*--7*--3*--7--10--5--7*--7--12--12--10--7--7--5--5--5--7--0**--0--2--3--5--3--2--0------0**---|
E|------------------------------------------------------------------------------------------------------------------|
C|------------------------------------------------------------------------------------------------------------------|
G|-------------------------------------------------------------------------------------------------------0---------|

When I play this, sometimes I strum these notes of tablature instead of picking them.

** I usually strum this as Am Am

 

Tab comments (0)
No comment yet :(
Need help, a tip to share, or simply want to talk about this song? Start the discussion!

You must be logged in to join the discussion
or Register

 

About this song

No information about this song.