The World As I See It (Intro) Uke tab by Jason Mraz

Ukulele Tab without chords.

Add tab to your SongBook
Tablature / ChordsFont size: A- A A+

Don't know how to read a tab or a chord ? Check out these uke lessons:

Detailed guide to strumming and picking
How to read uke tabs
Reading chord diagrams

A|---5-----------5--------------5-------------5------------------------------|
E|----------3-------------3--------------3----------------3------------------|
C|---------------------------------------------------------------------------|
G|------3------------3--------------3---------------3------------------------|

A|----3-------------3-------------3--------------3---------------------------|
E|--------------1-------------1--------------1----------------1--------------|
C|---------------------------------------------------------------------------|
G|---------2-------------2--------------2--------------2---------------------|

A|---------------------------------------------------------------------------|
E|-------6----3---------6---3-------------6---3--------------6----3----------|
C|---------------------------------------------------------------------------|
G|---7--------------7---------------7------------------7---------------------|

A|---------------------------------------------------------------------------|
E|---------5---------------5------------------5---------------5---------------|
C|--------------5---------------5-----------------5---------------5----------|
G|-----5---------------5-----------------5----------------5------------------|

 

Tab comments (1)
You must be logged in to join the discussion
or Register

 

davidrick85 avatar
This is such a smooth beat to just space out playing. Jason Mraz is a beast and all I can say is thank you sir.
27 Mar 2012
About this song

No information about this song.