The World As I See It Uke tab by Jason Mraz

5 Chords used in the song: Cm, Bb, Eb, F, Gm

Add tab to your SongBook
Tablature / ChordsFont size: A- A A+

Don't know how to read a tab or a chord ? Check out these uke lessons:

Detailed guide to strumming and picking
How to read uke tabs
Reading chord diagrams

# INTRO REPEAT 4 TIMES

A|-5-----5-----5-----5---------|
E|-----3-----3-----3-----3-----|
C|-----------------------------|
G|---3-----3-----3-----3-------|

A|-3-----3-----3-----3---------|
E|-----1-----1-----1-----1-----|
C|-----------------------------|
G|---2-----2-----2-----2-------|

-----------------------------------------------------
Cm Cm Bb Bb
The World as I see it is a remarkable place
Cm Cm Bb Bb
A A beautiful house in a forest of stars in outer space
Eb Eb F F
From a bird?s eye view I can see
Bb Bb Gm Gm
It has a well-rounded personality
Eb Eb F F Gm Gm
From a bird?s eye view I can see we are family
-----------------------------------------------------
Cm Cm
And it's not hard for me to love you
# Hard for me to love you
Bb Bb
No it's not a difficult thing
Cm Cm
It's not hard for me to love you
# Hard for me to love you
Bb Bb
Because you are the world to me
-----------------------------------------------------
Cm Cm Bb Bb
Yeah the World as I see it is a remarkable place
Cm Cm
Every man makes a difference
Bb Bb
And every mothers child is a saint
Eb Eb F F
From a bird?s eye view I can see
Bb Bb Gm Gm
We are spiralling down in gravity
Eb Eb F F Gm Gm
From a bird?s eye view I can see you are just like me
-----------------------------------------------------
Cm Cm
It's not hard for me to love you
# Hard for me to love you
Bb Bb
No it's not a difficult thing
Cm Cm
It's not hard for me to love you
Bb Bb
Oh I really love you unconditionally
-----------------------------------------------------
Cm Cm
No it's not hard for me to love you
# Hard for me to love you
Bb Bb
No it's not a difficult thing
Cm Cm
It's not hard for me to love you
# Oh I really love you
Bb Bb
Love you are the world to me.
-----------------------------------------------------
Eb Eb F F
You are the mountain, you are the rock
Bb Bb F F Gm Gm
You are the core and you're the spark
Eb Eb F F
You are the eagle, you are the lark
Bb Bb F F Gm Gm
You are the world and you're remarkable
-----------------------------------------------------
Eb Eb F F
You're the ocean eating the shore
Bb Bb F F Gm Gm
You are the calm inside the storm
Eb Eb Eb Eb
You're every emotion, you can endure
F F Gm Gm
You are the world and the world is yours
-----------------------------------------------------
Cm Cm
It's not hard for me to love you
# Hard for me to love you
Bb Bb
No it's not a difficult thing
Cm Cm
No it's not hard for me to love you
Bb Bb
Hard for me to love you unconditionally
-----------------------------------------------------
Cm Cm
No it's not hard for me to love you
# Hard for me to love you
Bb Bb
No it's not a difficult thing
Cm Cm
It's not hard for me to love you
# Hard for me to love you
Bb Bb
Because you are the world to me
-----------------------------------------------------
Cm Cm
No it's not hard for me to love you
# Hard for me to love you
Bb Bb
No it's not a difficult thing
Cm Cm
It's not hard for me to love you
# Hard for me to love you
Bb Bb
Because you are the world to me
-----------------------------------------------------
Cm Cm Bb Bb
Yeah the World as I see it is a remarkable place


# http://ukulily-filly.blogspot.com/2012/05/free-ukulele-tabs-with-lyrics.html

 

Tab comments (0)
No comment yet :(
Need help, a tip to share, or simply want to talk about this song? Start the discussion!

You must be logged in to join the discussion
or Register

 

About this song

No information about this song.