Sort Of Uke tab by Ingrid Michaelson

11 Chords used in the song: A,E,C,G,Em,F#m,Em7,F#m7,A7sus4,A9sus4,Asus494

Add tab to your SongBook
Tablature / ChordsFont size: A- A A+

Don't know how to read a tab or a chord ? Check out these uke lessons:

Detailed guide to strumming and picking
How to read uke tabs
Reading chord diagrams

Verse


A|---------------------------------------------| A|---------------------------------------------|
E|---2-----2-----2-----2----------------------| E|---------------------------------------------|
C|------2-----2-----2-----2-------------------| C|-----2-----2-----2------2-------------------|
G|---------------------------------------------| G|--0-----0-----0-----0-----------------------|

A|--0-----0-----0-----0-----------------------| A|--0-----0-----0-----0-----------------------|
E|---------------------------------------------| E|---------------------------------------------|
C|-----2-----2-----2-----2--------------------| C|-----2-----2-----2-----2--------------------|
G|---------------------------------------------| G|---------------------------------------------| x9 first, x4 second

Chorus

A|---------------------------------------------| A|--0-----0-----0-----0-----------------------|
E|---------------------------------------------| E|---------------------------------------------|
C|------2-----2-----2-----2--------------------| C|-----2-----2-----2-----2--------------------|
G|--0-----0-----0-----0------------------------| G|---------------------------------------------| x6

Em Em F#m F#m G G A A
But here I am, and here we go again.

Verse x4

Chorus

Bridge

Tell me what to do to take away the...
A|--------------------------------------------|
E|-------2------2------2-----2----------------|
C|---2------2------2------2-------------------|
G|---------------------------------------------|

A|-----0-----0-----0-----0--------------------|
E|----------------------------------------------|
C|--2-----2-----2-----2-----------------------|
G|---------------------------------------------|

A|----------------------------------------|
E|----------------------------------------|
C|--2-----2-----2-----2------------------|
G|-----0-----0-----0-----0---------------|

A|-----0-----0-----0-----0--------------------|
E|----------------------------------------------|
C|--2-----2-----2-----2-----------------------|
G|---------------------------------------------|

Em7 Em7 F#m7 F#m7 G G
you, Take away the you,

A7sus4 A7sus4
Take away the you (take away the you)

A9sus4 A9sus4
Take away the you (take away the you)

Chorus: Variation
A|---------------------------------------------| A|--0-----0-----0-----0-----------------------|
E|---------------------------------------------| E|---------------------------------------------|
C|------2-----2-----2-----2--------------------| C|-----2-----2-----2-----2--------------------|
G|--0-----0-----0-----0------------------------| G|---------------------------------------------| x6

Em Em F#m F#m G G
But here I am, and here we go again.

Asus94: 2232

 

Tab comments (0)
No comment yet :(
Need help, a tip to share, or simply want to talk about this song? Start the discussion!

You must be logged in to join the discussion
or Register

 

About this song

No information about this song.