Handlebars (12 Fret Version) Uke tab by Flobots

0 Chords used in the song:

9.1/10
PrintAdd tab to your SongBook

Tablature / Chords (

Font size: A- A A+

Artist: 
Album:  unknown
Key: unknownChords and Tablature
# Since many ukuleles only have 12 frets and the original 
# version of my "Handlebars" tab requires 17, I created this 12
# fret version of the song's "riff". Note that my original 17
# fret "Handlebars" tab more closely resembles the actual notes
# played in the song so if your ukulele does have 17 or more
# frets I encourage you to use that tab instead of this one.
# Nonetheless, this tab still sounds pretty good and I hope you
# enjoy playing it. Cheers!

A||--0----3----7----3----|------------2---------|
E||----------------------|--0----3---------3----|
C||----------------------|----------------------|
G||----------------------|----------------------|


|------------0----3----|----------------------|
|-------1--------------|----------------------|
|--0-------------------|----------------------|
|----------------------|--0----4----7----4----|


|-------0----3----8----|--5----8----12----8----|
|--1-------------------|-----------------------|
|----------------------|-----------------------|
|----------------------|-----------------------|


|--3----7----10----7----|--2----5----7---------||
|-----------------------|-----------------0----||
|-----------------------|----------------------||
|-----------------------|----------------------||

Uke tab by , 22 Nov 2009

Tab comments (4)

Something to say?
Share your strumming patterns, chords or tips to play this tab! ;)
Filter by:
blastbird avatar
Great! But I'm sure there's something better for soprano ukuleles
26 Sep 2018
Comment
eye2eye avatar
This is great, though I’m not sure about the 0 at the very end.
24 Mar 2012
Comment
rocker9455 avatar
flag for GB(ISO2) (Hereford)
ukulelinator Thanks so much! great tab, sounds fantastic!
30 Nov 2009
Comment
bonebone avatar
flag for GB(ISO2) (Ely)
thanks!
23 Nov 2009
Comment

Top Tabs & Chords by Flobots, don't miss these songs!

About this song: Handlebars (12 Fret Version)

No information about this song.

Did you cover Handlebars (12 Fret Version) on your Ukulele? Share your work!
Submit a cover