My Immortal (Riff) Uke tab by Evanescence

Ukulele Tab without chords.

Add tab to your SongBook
Tablature / ChordsFont size: A- A A+

Don't know how to read a tab or a chord ? Check out these uke lessons:

Detailed guide to strumming and picking
How to read uke tabs
Reading chord diagrams

--------0------2------0-------------------4--
----0------0-------0-----0-----0-----0----4--
-1--------------------------1----------------
-2--------------------------1-----1----------

 

Tab comments (2)
You must be logged in to join the discussion
or Register

 

Lyduke avatar
The second fret on the A string should switch places with the 4th fret with the E and A string... (just so it's in accordance of the song) so it should look like this:
--------0------4------0-------------------2--
----0------0---4---0-----0-----0-----0-------
-1--------------------------1----------------
-2--------------------------1-----1----------
02 Nov 2013
kke2star avatar
flag for CA(ISO2) (SHERBROOKE)
I'd go with 4 instead of 2
27 Oct 2013
About this song

Written by: A. Lee and B. Moody "My Immortal" is one of the most popular songs ever recorded by Evanescence. This song lasts the entire span of Evanescence