Photograph Uke tab by Ed Sheeran

Ukulele Tab without chords.

8.5/10
PrintAdd tab to your SongBook

Tablature / Chords (Full Song)

Font size: A- A A+

Artist: 
Album: 
Year:  2014
Key: unknownTablature (no chords)
A|----3-2-3--------|---3-2-3--------|-0-3-2-3--------|-0-3-2-3--------|---3-2-3--------|
E|-------------1-0-|------------1-0-|------------1-0-|------------1-0-|-3----------1-0-|
C|-0---------------|-0--------------|----------------|----------------|----------------|
G|-----------0-----|----------0-----|----------0-----|----------0-----|----------0-----|

A|---3-2-3--------|---3-2-3--------|----------------|
E|-3----------1-0-|------------1-0-|----------------|
C|----------------|-5--------------|-5--------------|
G|----------0-----|----------0-----|----------------|

⇢ Not happy with this tab? View 12 other version(s)

Uke tab by , 02 May 2016

Tab comments (0)

No comment yet :(
Need help, a tip to share, or simply want to talk about this song? Start the discussion!

Something to say?
Share your strumming patterns, chords or tips to play this tab! ;)

Top Tabs & Chords by Ed Sheeran, don't miss these songs!

About this song: Photograph

No information about this song.

Did you cover Photograph on your Ukulele? Share your work!
Submit a cover