A Thousand Years Uke tab by Christina Perri

5 Chords used in the song: Eb, Bb, Gm, F, Cm

Add tab to your SongBook
Tablature / ChordsFont size: A- A A+

Don't know how to read a tab or a chord ? Check out these uke lessons:

Detailed guide to strumming and picking
How to read uke tabs
Reading chord diagrams

*Note: This is not the exact tabs, everything is just ear-tabbed. The notes in "()" are played with low sound, almost mute.


Verse:

Eb Eb
x------1--------1--------1--------1----------
x-----3-3------3-3------3-3------3-3---------
x---3----(3)-3----(3)-3----(3)-3----(3)------
x--------------------------------------------

Heart beatsfast......


Bb Bb
x------1--------1--------1--------1----------
x-----2-2------2-2------2-2------2-2---------
x---2----(2)-2----(2)-2----(2)-2----(2)------
x--------------------------------------------

promises How to be


Gm Gm F F Bb Bb
x------1--------1--------0--------1----------
x-----3-3------3-3------1-1------2-2---------
x---2----(2)-2----(2)-0----(0)-2----(2)------
x--------------------------------------------

brave How can I love when........




Pre-chorus:



Cm Cm Gm Gm F F
One step closer




Chorus:


Bb Bb

I have died everyday waiting for you

Gm Gm F F

Darlin'don't be afraid I have loved you

Eb Eb

For a thousand years

Gm Gm F F

I'll love you for a thousand more



Outro (before second verse): Eb Eb



# Enjoy! Peace!

 

Tab comments (0)
No comment yet :(
Need help, a tip to share, or simply want to talk about this song? Start the discussion!

You must be logged in to join the discussion
or Register

 

About this song

The A Thousand Years Songfacts says that Perri wrote this song based on the emotions that she felt reading about the star-crossed love affair between Edward and Bella throughout Stephenie Meyer's series of books. American singer/songwriter and musician Christina Judith Perri hails from Philadelphia, USA. 'A Thousand Years' was recorded for the movie 'The Twilight Saga: Breaking Dawn'. Christina will be releasing her second studio album this spring.