A Thousand Years (Solo) Uke tab by Christina Perri

Ukulele Tab without chords.

Add tab to your SongBook
Tablature / ChordsFont size: A- A A+

Don't know how to read a tab or a chord ? Check out these uke lessons:

Detailed guide to strumming and picking
How to read uke tabs
Reading chord diagrams

A|---------5---------5---------5---------5-----2---5-----2---5----|
E|-----0---------0---------0---------0---------3---------3--------|
C|-----0---------0---------0---------0----------------------------|
G|--------0-0-------0-0-------0-0-------0-0-------0-0-------0-0---|

A|-----2---5-----2---5-----2---5-----2---5-------------|
E|-----3---------3---------0---------0-----------------|
C|-----------------------------------------------------|
G|--------0-0-------0-0-------0-0-------0-0------------|

A|----0---5-----0---5---------5---------5---------5---------5----------|
E|------------------------0---------0---------0---------0--------------|
C|----2---------6---------0---------0---------0---------0--------------|
G|-------2-2-------2-2-------0-0-------0-0-------0-0-------0-0---------|

A|-----2---5-----2---5-----2---5-----2---5-------------|
E|-----3---------3---------3---------3-----------------|
C|-----------------------------------------------------|
G|--------0-0-------0-0-------0-0-------0-0------------|
s s s S
A|-----2---5-----2---5------0---5-----2---5-----0---5-----0---5----------------|
E|-----0---------0--------------------3---------0---------0--------------2-----|
C|--------------------------2----------------------------------------A-u---G---|
G|--------0-0-------0-0--------2-2-------0-0-------0-0-------0-0-----trumming--|

 

Tab comments (0)
No comment yet :(
Need help, a tip to share, or simply want to talk about this song? Start the discussion!

You must be logged in to join the discussion
or Register

 

About this song

The A Thousand Years Songfacts says that Perri wrote this song based on the emotions that she felt reading about the star-crossed love affair between Edward and Bella throughout Stephenie Meyer's series of books. American singer/songwriter and musician Christina Judith Perri hails from Philadelphia, USA. 'A Thousand Years' was recorded for the movie 'The Twilight Saga: Breaking Dawn'. Christina will be releasing her second studio album this spring.