Fur Elise Uke tab by Beethoven, Ludwig Van

1 Chords used in the song :

Add tab to your SongBook

View these chords for the Baritone

Transpose chords:
Tablature / ChordsFont size: A- A A+

Don't know how to read a tab or a chord ? Check out these uke lessons:

How to read uke tabs
Reading chord diagrams


A|-7-6-7-6-7-2-5-3-0-----0-2-----2-3--------|
E|---------------------0-------0------------|
C|-------------------0-------0--------------|
G|------------------------------------------|



A|-7-6-7-6-7-2-5-3-0-----0-2---3-2-0--------|
E|---------------------0-----0--------------|
C|-------------------0----------------------|
G|------------------------------------------|

 

Tab comments (3)
You must be logged in to join the discussion
or Register

 

AstraSoul avatar
It's sounds thinner
14 Mar 2019
AstraSoul avatar
Instead of using 767 use 878 it's sounds more better
14 Mar 2019
DrinkTea avatar
---0-2-----2-3
--0-----0-------
-0---------------
-----------1-----
12 Mar 2019
About this song

"Für Elise" (German for "For Elise") is the popular name of the bagatelle in A minor WoO 59, marked poco moto, a piece of music for solo piano by Ludwig van Beethoven (1770-1827), dated 27 April 1810.Beethoven scholars are not entirely certain who "Elise" was. The most reasonable theory is that Beethoven originally titled his work "Für Therese", Therese being Therese Malfatti von Rohrenbach zu Dezza (1792-1851), whom Beethoven intended to marry in 1810 and was also one of his students. Read more on Last.fm.