Neon Genesis Evangelion Op Uke tab by Anime Songs

Ukulele Tab without chords.

9.6/10
PrintAdd tab to your SongBook

Tablature / Chords (Full Song)

Font size: A- A A+

Artist: 
Album:  unknown
Key: unknownTablature (no chords)
play slowly

A|-----------------------1-------------1-3--------1-1----1-1-3--
E|--------------------------4-3-1-3--3-----1-----------3--------
C|-----0---3-5-3--5-5-5----------------------3-3----------------
G|--------------------------------------------------------------
^
repeat once but faster |

A|--------------------------------------------------------------
E|---3----3-3-5-------5-6-5-3-1-3-5-6-5------------------4-4-3-3
C|----2-2------2-2---2-----------------2---2-2-2-1-1---1--------
G|--------------------------------------------------------------

A|--------------------------------------------------------------
E|---4-4-3-1-3-4-5-4-----4-4-3-4-4-3-6-6-4-3-1-3-4-4-3-6-4-1----
C|------------------------------------------------------------3-
G|--------------------------------------------------------------

A|--------------------------------------------------------------
E|--134---4-4-3-4-4-3-6-6-4-3-4-6-8-9-8-6-4--6--8---------------
C|-3------------------------------------------------------------
G|--------------------------------------------------------------

ENDING

A|-----------------------1-------------1-3----------------------
E|--------------------------4-3-1-3--3-----1--------------------
C|-----0---3-5-3--5-5-5----------------------3-2-2-0-2-3-3------
G|--------------------------------------------------------------

A|-----------------------1-------------1-3-------1-1--1-1-3(end)
E|--------------------------4-3-1-3--3-----1---------3----------
C|-----0---3-5-3--5-5-5----------------------3-3----------------
G|--------------------------------------------------------------


this is my first tab (^w^)

Uke tab by , 04 Dec 2017

Tab comments (6)

Something to say?
Share your strumming patterns, chords or tips to play this tab! ;)
Filter by:
404artistN0tF0und avatar
this is great, thank you
03 Apr 2020
Comment
diankaag avatar
awesomeee
28 Apr 2019
Comment
SchlagenB avatar
flag for US(ISO2) (Newberry SC)
*Trys to remember the AmaLee lyrics*
16 Mar 2019
Comment
SebastianPG avatar
flag for MX(ISO2) (Torreon)
awesome now i need the whole tab
07 Feb 2019
Comment
letsblowitup avatar
zankoku na tenshi no you ni
shounen yo shinwa ni nare
10 May 2018
Comment
OliveGardenBread avatar
mobile flag for US(ISO2) (Holland)
this is really good. I came for the meme not the actual anime however haha
12 Jan 2018
Comment

Top Tabs & Chords by Anime Songs, don't miss these songs!

About this song: Neon Genesis Evangelion Op

No information about this song.

Did you cover Neon Genesis Evangelion Op on your Ukulele? Share your work!
Submit a cover