Fly Me To The Moon (evangelion) Uke tab by Anime Songs

Ukulele Tab without chords.

10/10
PrintAdd tab to your SongBook

Tablature / Chords (Full Song)

Font size: A- A A+

Artist: 
Album:  unknown
Key: unknownTablature (no chords)
A|-3-2-0-------0-3-2-0-------2-1-------------------|
E|-0-----3-1-3-----1---3-1-0-0-0--------------------|
C|-0-------2-------2-------0-0-0----------------|
G|-2-------2-------0-------0-0-0----------------|



A|---0-0-2-3-2-2-0-------2-0---3-2-2-2-----------------|
E|---1-1-1-----3-0---1-1-1---3-1-0-2-0-----------------|
C|-2---2-2-----0-0-2-2-2-2-----0-0-2-2-----------------|
G|-----2-0-----0-0---2-2-0-----1-0-2-1---------------|



A|-3-2-0-------0-3-2-5-2-----2-1--------------------|
E|-0-----3-1-3-----1-----3-0-0-0-------------------|
C|-0-------2-------2-------0-0-0----------------|
G|-2-------2-------0-------0-0-0----------------|



A|-0-------------0-----------0---0------------|
E|-1-3-1-0---0-1---4-1-0-----0---0-------------------|
C|-0-------2-------2-----2-0---1---1------------|
G|-2-------2-------1-------------------------|



A|---0-0-2-3-2-7-4-7---0-0-2-3-2-7-4-7--------------------|
E|---1-1-1-----7-3-----1-1-1-----7-3----------------|
C|-2---2-2-----7-4---2---2-2-----7-4----------------|
G|-----2-0-----7-0-------2-0-----7-0--------------|



A|-8-----2-3-2-3-3-5-3-2-0-2-------------------------|
E|-5-8-8-1-----0-------2---0---------------------|
C|-5-----2-----0-------2---2-------------------|
G|-5-----0-----0-------2---1-------------------|



A|-3-2-0-------0-3-2-5-2-----2-1--------------------|
E|-0-----3-1-3-----1-----3-0-0-0-------------------|
C|-0-------2-------2-------0-0-0----------------|
G|-2-------2-------0-------0-0-0----------------|



A|-0-------------0-----------0---0------------|
E|-1-3-1-0---0-1---4-1-0-----0---0-------------------|
C|-0-------2-------2-----2-0---1---1-2------------|
G|-2-------2-------1-------------------------|



A|-0-0-2-3-2-7-4-7-8-----2-3-2-3-1-3-2--------------------|
E|-1-1-1-----7-3---5-8-8-1-----0-1-1-0-----------------|
C|---2-2-----7-4---5-----2-----0-2-3-2--------------|
G|---2-0-----7-0---5-----0-----0-0-1-0---------------|



A|----------------------------------------|
E|----------------------------------------|
C|----------------------------------------|
G|----------------------------------------|

Uke tab by , 22 Mar 2022

Tab comments (0)

No comment yet :(
Need help, a tip to share, or simply want to talk about this song? Start the discussion!

Something to say?
Share your strumming patterns, chords or tips to play this tab! ;)

Top Tabs & Chords by Anime Songs, don't miss these songs!

About this song: Fly Me To The Moon (evangelion)

No information about this song.

Did you cover Fly Me To The Moon (evangelion) on your Ukulele? Share your work!
Submit a cover