Someone Like You Uke tab by Adele

Ukulele Tab without chords.

Add tab to your SongBook
Tablature / ChordsFont size: A- A A+

Don't know how to read a tab or a chord ? Check out these uke lessons:

Detailed guide to strumming and picking
How to read uke tabs
Reading chord diagrams

A|------3-------3-------3-------3-------3-------3-------3-------3------------|
E|--1-------1-------1-------1-------0-------0-------0-------0----------------|
C|---------------------------------------------------------------------------|
G|----2---2---2---2---2---2---2---2---2---2---2---2---2---2---2---2----------|

A|------5-------5-------5-------5-------5-------5-------5-------5------------|
E|----------------------------------1-------1-------1-------1----------------|
C|--2-------2-------2-------2------------------------------------------------|
G|----2---2---2---2---2---2---2---2---3---3---3---3---3---3---3---3----------|

A|------3-------3-------3-------3-------3-------3-------3-------3------------|
E|--1-------1-------1-------1-------0-------0-------0-------0----------------|
C|---------------------------------------------------------------------------|
G|----2---2---2---2---2---2---2---2---2---2---2---2---2---2---2---2----------|

A|------5-------5-------5-------5-------5-------5-------5-------5------------|
E|----------------------------------1-------1-------1-------1----------------|
C|--2-------2-------2-------2------------------------------------------------|
G|----2---2---2---2---2---2---2---2---3---3---3---3---3---3---3---3----------|

A|------3-------3-------3-------3-------3-------3-------3-------3------------|
E|--1-------1-------1-------1-------0-------0-------0-------0----------------|
C|---------------------------------------------------------------------------|
G|----2---2---2---2---2---2---2---2---2---2---2---2---2---2---2---2----------|

A|------5-------5-------5-------5-------5-------5-------5-------5------------|
E|----------------------------------1-------1-------1-------1----------------|
C|--2-------2-------2-------2------------------------------------------------|
G|----2---2---2---2---2---2---2---2---3---3---3---3---3---3---3---3----------|

A|------3-------3-------3-------3-------3-------3-------3-------3------------|
E|--1-------1-------1-------1-------0-------0-------0-------0----------------|
C|---------------------------------------------------------------------------|
G|----2---2---2---2---2---2---2---2---2---2---2---2---2---2---2---2----------|

A|------5-------5-------5-------5-------5-------5-------5-------5------------|
E|----------------------------------1-------1-------1-------1----------------|
C|--2-------2-------2-------2------------------------------------------------|
G|----2---2---2---2---2---2---2---2---3---3---3---3---3---3---3---3----------|

A|------3-------3-------5-------5-------5-------5-------5-------5------------|
E|--0-------0-----------------------1-------1-------1-------1----------------|
C|------------------2-------2------------------------------------------------|
G|----2---2---2---2---2---2---2---2---3---3---3---3---3---3---3---3----------|

A|------3-------3-------5-------5-------5-------5-------5-------5------------|
E|--0-------0-----------------------1-------1-------1-------1----------------|
C|------------------2-------2------------------------------------------------|
G|----2---2---2---2---2---2---2---2---3---3---3---3---3---3---3---3----------|

A|------3-------3-------3-------3-------4-------4-------5-------5------------|
E|--1-------1-------0-------0-----------------------1-------1----------------|
C|----------------------------------2-------2--------------------------------|
G|----2---2---2---2---2---2---2---2---3---3---3---3---3---3---3---3----------|

A|------3-------3-------3-------3-------4-------4-------5-------5------------|
E|--1-------1-------0-------0-----------------------1-------1----------------|
C|----------------------------------2-------2--------------------------------|
G|----2---2---2---2---2---2---2---2---3---3---3---3---3---3---3---3----------|

A|------3-------3-------3-------3-------4-------4-------5-------5------------|
E|--1-------1-------0-------0-----------------------1-------1----------------|
C|----------------------------------2-------2--------------------------------|
G|----2---2---2---2---2---2---2---2---3---3---3---3---3---3---3---3----------|

A|------3-------3-------3-------3-------4-------4-------5-------5------------|
E|--1-------1-------0-------0-----------------------1-------1----------------|
C|----------------------------------2-------2--------------------------------|
G|----2---2---2---2---2---2---2---2---3---3---3---3---3---3---3---3----------|

 

Tab comments (0)
No comment yet :(
Need help, a tip to share, or simply want to talk about this song? Start the discussion!

You must be logged in to join the discussion
or Register

 

About this song

No information about this song.