Hello Uke tab by Adele

Ukulele Tab without chords.

Add tab to your SongBook
Tablature / ChordsFont size: A- A A+

Don't know how to read a tab or a chord ? Check out these uke lessons:

Detailed guide to strumming and picking
How to read uke tabs
Reading chord diagrams

A|----------------------------------------|
E|--4---4---3----1------------------------|
C|--5---3---3----1------------------------|
G|----------------------------------------|
x2 Intro


verse:
Hello, it's me,

A|----------------------------------------|
E|--4---4---3----1------------------------|
C|--5---3---3----1------------------------|
G|----------------------------------------|

i was wondering If after all these years you'd like to meet to go over, everything


A|----------------------------------------|
E|--4---4---3----1------------------------|
C|--5---3---3----1------------------------|
G|----------------------------------------|

They say that time's supposed to heal, yeah, but I ain't done much healing
A|----------------------------------------|
E|--4---4---3----1------------------------|
C|--5---3---3----1------------------------|
G|----------------------------------------|

Hello, can you hear me?
A|----------------------------------------|
E|--4---4---3----1------------------------|
C|--5---3---3----1------------------------|
G|----------------------------------------|

I'm in California dreaming about who we used to be
A|----------------------------------------|
E|--4---4---3----1------------------------|
C|--5---3---3----1------------------------|
G|----------------------------------------|

When we were younger and free

A|----------------------------------------|
E|--4---4---3----1------------------------|
C|--5---3---3----1------------------------|
G|----------------------------------------|

I've forgotten how it felt before the world fell at our feet
A|----------------------------------------|
E|--4---4---3----1------------------------|
C|--5---3---3----1------------------------|
G|----------------------------------------|

There's such a difference between us


A|----------------------------------------|
E|--4---4---3----1------------------------|
C|--3---5---3----1------------------------|
G|----------------------------------------|

And a million miles


A|----------------------------------------|
E|--4---3---1-----------------------------|
C|--5---3---1-----------------------------|
G|----------------------------------------|

the rest of the song is the same where the bridge is the tab on top of this sentence and the rest is the other part

here are the rest of the lyrics


Hello from the other side
I must've called a thousand times
To tell you I'm sorry, for everything that I've done
But when I call you never seem to be home

Hello from the outside
At least I can say that I've tried
To tell you I'm sorry, for breaking your heart
But it don't matter, it clearly doesn't tear you apart anymore

Hello, how are you?
It's so typical of me to talk about myself, I'm sorry
I hope that you're well
Did you ever make it out of that town where nothing ever happened?

It's no secret
That the both of us are running out of time

So hello from the other side
I must've called a thousand times
To tell you I'm sorry, for everything that I've done
But when I call you never seem to be home

Hello from the outside
At least I can say that I've tried
To tell you I'm sorry, for breaking your heart
But it don't matter, it clearly doesn't tear you apart anymore

Ooh, anymore
Ooh, anymore
Ooh, anymore
Anymore...

Hello from the other side
I must've called a thousand times
To tell you I'm sorry, for everything that I've done
But when I call you never seem to be home

Hello from the outside
At least I can say that I've tried
To tell you I'm sorry, for breaking your heart
But it don't matter, it clearly doesn't tear you apart anymore

 

Tab comments (0)
No comment yet :(
Need help, a tip to share, or simply want to talk about this song? Start the discussion!

You must be logged in to join the discussion
or Register

 

About this song

"Hello" was the first single released from Adele's long awaited third studio album "25". The track was released on Friday, October 23, 2015 and soon went on to break a number of records. It went straight to No. 1 in Billboard's Hot 100 (November 14, 2015) - which combines digital sales, radio airplay and streaming data - and became the first song to sell over 1 million downloads in 1 week. The video broke VEVO's "most viewed video in 24 hours", getting over 27. Read more on Last.fm.