Someone Like You Uke tab by Adele

Ukulele Tab without chords.

8/10
PrintAdd tab to your SongBook

Tablature / Chords (Full Song)

Font size: A- A A+

Artist: 
Album: 
Year:  2011
Key: unknownTablature (no chords)
A|----4---4---4---4---4---4---4---4---4---4---4---4---4---4---4---4---
E|------0-------0-------0-------0-------0-------0-------0-------0-----
C|--------------------------------------------------------------------
G|--2-------2-------2-------2-------1-------1-------1-------1---------

A|----4---4---4---4---4---4---4---4---5---5---5---5---5---5---5---5---
E|--2---2---2---2---2---2---2---2-------2-------2-------2-------2-----
C|--------------------------------------------------------------------
G|----------------------------------2-------2-------2-------2---------

A|----4---4---4---4---4---4---4---4---4---4---4---4---4---4---4---4---
E|------0-------0-------0-------0-------0-------0-------0-------0-----
C|--------------------------------------------------------------------
G|--2-------2-------2-------2-------1-------1-------1-------1---------

A|----4---4---4---4---4---4---4---4---5---5---5---5---5---5---5---5---
E|--2---2---2---2---2---2---2---2-------2-------2-------2-------2-----
C|--------------------------------------------------------------------
G|----------------------------------2-------2-------2-------2---------

A|----4---4---4---4---4---4---4---4---4---4---4---4---4---4---4---4---
E|------0-------0-------0-------0-------0-------0-------0-------0-----
C|--------------------------------------------------------------------
G|--2-------2-------2-------2-------1-------1-------1-------1---------

A|----4---4---4---4---4---4---4---4---5---5---5---5---5---5---5---5---
E|--2---2---2---2---2---2---2---2-------2-------2-------2-------2-----
C|--------------------------------------------------------------------
G|----------------------------------2-------2-------2-------2---------

A|----4---4---4---4---4---4---4---4---4---4---4---4---4---4---4---4---
E|------0-------0-------0-------0-------0-------0-------0-------0-----
C|--------------------------------------------------------------------
G|--2-------2-------2-------2-------1-------1-------1-------1---------

A|----4---4---4---4---4---4---4---4---5---5---5---5---5---5---5---5---
E|--2---2---2---2---2---2---2---2-------2-------2-------2-------2-----
C|--------------------------------------------------------------------
G|----------------------------------2-------2-------2-------2---------

A|----4---4---4---4---4---4---4---4---4---4---4---4---5---5---5---5---
E|------0-------0-------0-------0---2---0---2---0-------2-------2-----
C|--------------------------------------------------------------------
G|--2-------2-------1-------1-----------------------2-------2---------

⇢ Not happy with this tab? View 34 other version(s)

Uke tab by , 23 Nov 2011

Tab comments (2)

Something to say?
Share your strumming patterns, chords or tips to play this tab! ;)
Filter by:
b0$$ avatar
flag for US(ISO2) (Johns Creek)
i hate this song but like to play the tab :)
21 Feb 2012
Comment
Benpaco avatar
flag for US(ISO2) (California)
Coolio!
26 Nov 2011
Comment

Top Tabs & Chords by Adele, don't miss these songs!

About this song: Someone Like You

No information about this song.

Did you cover Someone Like You on your Ukulele? Share your work!
Submit a cover