Set Fire To The Rain (Intro) Uke tab by Adele

Ukulele Tab without chords.

Add tab to your SongBook
Tablature / ChordsFont size: A- A A+

Don't know how to read a tab or a chord ? Check out these uke lessons:

Detailed guide to strumming and picking
How to read uke tabs
Reading chord diagrams

This is my first tab and I believe this plays throughout the beginning.. Enjoy!



A--0--------------0---------------0-----------------0--1--0--0-------------
E--------1----------------1---------------1--------------------------------
C-----2----2----------2---------------0------0-----------------------------
G--2--------------2---------------2-----------------2--3--2--0-------------

A-------------0--------------1--------------1---------1--------------------
E-----0---------------0-------------3--------------3-----------------------
C--0-----0--------0--------------2-----2--------2--------------------------
G-------------0--------------0--------------0------------------------------

 

Tab comments (1)
You must be logged in to join the discussion
or Register

 

Magical_Uke avatar
flag for US(ISO2) (Boise)
Excellent tab
29 Dec 2012
About this song

No information about this song.