Joy To The World Tab por Misc Christmas

tablatura Ukulele sin acordes.

Añadir esta tab a su SongBook
Tablature / ChordsFont size: A- A A+

¿ No sabe cómo leer una tablatura o un acorde ?

curso de ukulele

A|-5-3-2-0---------0-2-2-4-4-5--|
E|-1-3-3---0-1-0-------0-0-3-1--|
C|-----------2-0-2-2-2----------|
G|---------0--------------------|
Joy to the World , the Lord is come! Let earth receive her King


A|-5-5-4-2-0-0-----5-5-4-2-0-0-----------------|
E|-1-1---3-1-1-0-1-1-1---3-1-1-0-1-1-1-1-1-1-0-|
C|---------------2---------------2-2-2-2-2-2---|
G|-----2-------0-------2-------0-------------0-|
Let every heart prepare Him room, and Heaven and nature sing,


A|-----------------------5-2-0---------------|
E|-0-1-0-0-0-0-1-0-1-0---1-3-1-0-1-0-1-0-----|
C|---2-0-0-0-0-2---2-0-2---------2---2-0-2---|
G|-0-------------0-------------0---0---------|
And Heaven and nature sing. And Heaven, and Heaven, and nature sing.


A|-5-4-2-0------------------------------------|
E|-1-3-3-1-2-0-1-0----------------------------|
C|-------------2-0-2-2------------------------|
G|--------------------------------------------|
Joy to the World!

 

Comentarios (0)
Ningún comentario :(
¿Necesitas ayuda, un consejo para compartir o simplemente quieres hablar sobre esta canción? Comience la discusión

Debes iniciar sesión para unirte a la discusión
o Registrarse

 

Acerca de esta canción

No hay información por esta canción.