Joy To The World Tab por Misc Christmas

tablatura Ukulele sin acordes.

Añadir esta tab a su SongBook
Tablature / ChordsFont size: A- A A+

¿ No sabe cómo leer una tablatura o un acorde ?

curso de ukulele

A----5-4-2--0-0-0----------------------------------
E------------------3-2-0---------------------------
C-------------------------2------------------------
G--------------------------------------------------

A----0--2-2-2-2--4-4-4-4--5--5-5-5-5---------------
E--------------------------------------------------
C--------------------------------------------------
G--------------------------------------------------

A----5-5--4-2-0-0----------------------------------
E------------------3--2----------------------------
C--------------------------------------------------
G--------------------------------------------------

A----5-5--4-2-0-0----------------------------------
E------------------3--2----------------------------
C--------------------------------------------------
G--------------------------------------------------


A-------------------0-0-0--------------------------
E----2-2-2-2---2-3---------------------------------
C--------------------------------------------------
G--------------------------------------------------

A--------------------------------------------------
E----3-2--0-0-0---0-2-3-3--------------------------
C--------------------------------------------------
G--------------------------------------------------

A----------5-5-2-0---------------------------------
E----2-0------------3-2--3-2---0-------------------
C--------------------------------2-----------------
G--------------------------------------------------

 

Comentarios (2)
Debes iniciar sesión para unirte a la discusión
o Registrarse

 

 avatar
flag for (ISO2)
I mean Job.:)
17 Dec 2014
 avatar
flag for (ISO2)
Good Jpb!
17 Dec 2014
Acerca de esta canción

No hay información por esta canción.