Hark Now Hear The Angels Sing (chorus) Tab por Misc Christmas

tablatura Ukulele sin acordes.

ImprimirAñadir esta tab a su SongBook
Tablature / ChordsFont size: A- A A+

¿ No sabe cómo leer una tablatura o un acorde ?

curso de ukulele

A|-5-5-7-7-3-2-3-5-5-2-2-3-3-0----|
E|-1-1-3-3-0---0-1-1-2-2---0------|
C|---------------------------0----|
G|-----------------------0--------|
Hark, now hear the angels sing, a new king born today,


A|-----5-3-2-----------2-0-2-3-2--|
E|-0-1-1-1-1-0-0---0-1---0--------|
C|---2-----------0---2-2-----0-2--|
G|-0---------0-----0--------------|
And man will live forever more, because of christmas day.


A|-5-5-7-7-3-2-3-5-5-2-2-3-3-0----|
E|-1-1-3-3-0---0-1-1-------0-0----|
C|-------------------2-2-0--------|
G|--------------------------------|
Trumpets sound and angels sing listen to what they say



A|-----5-3-2-----------2-0-3-2-----|
E|-0-1-1-1-1-0-0---0-1---0-0-------|
C|---2-----------0---2-2-----------|
G|-0---------0-----0---------2-----|
That man will live forever more, because of christmas day.

 

Comentarios (0)
Ningún comentario :(
¿Necesitas ayuda, un consejo para compartir o simplemente quieres hablar sobre esta canción? Comience la discusión

Debes iniciar sesión para unirte a la discusión
o Registrarse

 

Acerca de esta canción

No hay información por esta canción.