Deck The Halls Tab por Misc Christmas

tablatura Ukulele sin acordes.

Añadir esta tab a su SongBook
Tablature / ChordsFont size: A- A A+

¿ No sabe cómo leer una tablatura o un acorde ?

curso de ukulele

A|----------------|----------------|----------------|----------------|
E|------3-2---0---|----0---2-------|0-2-3-0-2-----0-|----------------|
C|----------------|2-----------2---|----------------|2---1---2-------|
G|2---------------|----------------|----------------|----------------|

A|----------------|----------------|----------------|----------------|
E|------3-2---0---|----0---2-------|0-2-3-0-2-----0-|----------------|
C|----------------|2-----------2---|----------------|2---1---2-------|
G|2---------------|----------------|----------------|----------------|

A|----------------|----------------|----------4-5---|4---------------|
E|0-----2-3---0---|2-----3-----0---|2-3-------------|----------------|
C|----------------|----------------|----------------|----------------|
G|----------------|--------2-------|----2---4-------|----4---2-------|

A|----------------|----------------|----------------|----------------|
E|------3-2---0---|----0---2-------|--------------3-|2---0-----------|
C|----------------|2-----------2---|----------------|--------2-------|
G|2---------------|----------------|4-4-4-4-2-------|----------------|

 

Comentarios (2)
Debes iniciar sesión para unirte a la discusión
o Registrarse

 

aaudiio avatar
its not quite right. it should be 5-3-2-0 for the first part on the E string, not just 3-2-0. this makes it sound much better.
24 Oct 2015
imagineit avatar
not sure why this is rated so horribly... sounds alright to me
21 Dec 2014
Acerca de esta canción

No hay información por esta canción.