Feliz Navidad Tab por Misc Christmas

tablatura Ukulele sin acordes.

Añadir esta tab a su SongBook
Tablature / ChordsFont size: A- A A+

¿ No sabe cómo leer una tablatura o un acorde ?

curso de ukulele

A|--------------0--------------------------------------|
E|---3-1-3-0--0---3-0------3-1-3-0---0-0-----------0---|
C|-2-------0--0-2-0-0-2--2-------0-0-----2-2-2-0-2---2-|
G|-----------------------------------------------------|
Feliz navidad. Feliz navidad. Feliz navidad, prospero año y felicidad



A|-2-2-2-2-0-----------0-0-0-0-------------|
E|-----------3-3-0-0-3---------3-0-0-------|
C|-2-2-2-2-2---0-0-0-0-2-2-2-2-2-2-0-2-2-2-|
G|-----------------------------------------|
I want to wish you a merry Christmas. I want to wish you a merry Christmas



A|-2-2-2-2-0-------------------------2-0---|
E|-----------3-3-0-0-3-0-0-1-3-0-0-0-----3-|
C|-2-2-2-2-2-2-0-0-0-2-----2-2-0-0-0-----2-|
G|---------------------0-0-----------------|
I want to wish you a merry Christmas from the bottom of my heart

 

Comentarios (1)
Debes iniciar sesión para unirte a la discusión
o Registrarse

 

UkeKittyKat avatar
flag for US(ISO2) (Lebanon)
It sounds pretty good. It might just be because I just played it through a couple times and I'm new to more than one string at a time for tabs like this but I thought the end could be slightly different and sound better. Might just be me, though!
24 Nov 2018
Acerca de esta canción

No hay información por esta canción.