Jingle Bells Tab por Misc Christmas

tablatura Ukulele sin acordes.

Añadir esta tab a su SongBook
Tablature / ChordsFont size: A- A A+

¿ No sabe cómo leer una tablatura o un acorde ?

curso de ukulele

# Melody to Jingle Bells

A|-2-0---2------2-0---3---3-2-0--0--5-5-3-0--2-|
E|-----3-3----------3-0--0-------2-----------3-|
C|2------2--2-2-------0----------2-----------2-|
G|-------0------------0----------2-----------0-|

A|-2-0---2------2-0---3-----3-2-0--5-5-5-5-7-3-0-2-|
E|-----3-3----------3-0--0-0-------2-2-2-2-2-2-2-3-|
C|2------2--2-2-------0------------2-2-2-2-2-2-2-2-|
G|-------0------------0------------2-2-2-2-2-2-2-0-|

A|5--2-2-2--2-2-2--2-5--0-2--3-3-3--3-3-2-2--222-0-0-2-0--5-|
E|2--3-3-3--3-3-3--3---2--3--0-0-0--0-0-0-0--000-0-0-0-0--2-|
C|2--2-2-2--2-2-2--2------2--0-0-0--0-0-0-0--000-1-1-0-1--2-|
G|2--0-0-0--0-0-0--0------0--0-0-0--0-0-0-0--000-0-0-0-0--2-|

A|2-2-2--2-2-2--2-5--0-2--3-3-3--3-3-2-2--222-5-5-3-0--2-|
E|3-3-3--3-3-3--3---2--3--0-0-0--0-0-0-0--000-2-2-2-2--3-|
C|2-2-2--2-2-2--2------2--0-0-0--0-0-0-0--000-2-2-2-2--2-|
G|0-0-0--0-0-0--0------0--0-0-0--0-0-0-0--000-2-2-2-2--0-|

 

Comentarios (1)
Debes iniciar sesión para unirte a la discusión
o Registrarse

 

ArtemisEzriel avatar
In the "jingle all the way" part, the "all" sounds better if you play it as a 3 on the E string. I hope that made at least a little sense!
10 Jun 2018
Acerca de esta canción

No hay información por esta canción.