I'm In Love With An E-girl Uke tab by Wilbur Soot

5 Chords used in the song :

Add tab to your SongBook

View these chords for the Baritone

Transpose chords:
Tablature / ChordsFont size: A- A A+

Don't know how to read a tab or a chord ? Check out these uke lessons:

Detailed guide to strumming and picking
How to read uke tabs
Reading chord diagrams

strumming: dudu ud

[solo] (thank you random commenter)

A|-----2-0-2-----2-0-2-----2-0-2-----2-3-2--|
E|------------------------------------------|
C|------------------------------------------|
G|-0-0-------0-0-------0-0-------0-0-------0|



[verse 1]
G G
well, it's 2:45pm
B B C C
wake up from snoring, open DMs
G G
can of Red Bull by the bed
B B C C
vape is charged, snapchat’s read

G G B B C C
what's popping?
G G B B C C
what's popping?

G G
she’s beauty, she's grace
B B C C
she has a profile picture of an anime girl's face
G G
sust a single message more
B B C C A A
sends her rubbing up my ethernet cord


[bridge]
C C
i wanna be the guy
B B A A
that you fall asleep on call with
C C
i'll make you forget
B B A A
every guy that came before me
C C
'cause I like you
B B A A
and you like my attention
C C
let's skip to the good bit
D D
let's consummate our internet connection


[Chorus]
G G
i'm in love with an

i’m in love with an
B B
i’m in love with an
C C
with an e-girl
G G
i'm in love with an

i’m in love with an
B B
i'm in love with an
C C
with an e-girl


[Verse 2]
G G
mom took away my PS4
B B C C
so I punched a hole through my bedroom wall
G G
i'm not aggressive
B B C C
i just ooze masculine passion

G G
did you know I've also got depression?
B B C C
i’m self-diagnosed, thought I should mention
G G B B C C A A
i thought you could be the one to fix me


[bridge]
C C
i wanna be the girl
B B A A
that you fall asleep on call with
C C
meanwhile I'll
B B A A
find other people to talk with
C C
'cause you like me
B B A A
and I think you're a maniac
C C
let's skip to the good bit
D D
let's completely block all contact


[chorus]
G G
i'm in love with an

i'm in love with an
B B
i'm in love with an
C C
with an e-girl
G G
i'm in love with an

i'm in love with an
B B
i'm in love with an
C C
iith an e-girl


[Verse 3]
G G
mom took away my PS4
B B C C
i've said it so many times before
G G B B C C
how can I live on if I keep collecting
G G
these every little slights and insurrections
B B C C
constant pain in every dimension
G G
my body weeps
B B C C A A
misbelief heads suspensions


[bridge]
C C
i wanna be the guy
B B A A
that you find stalking your affections
C C
your social media scoured
B B A A
you seek police interventions
C C
cause I base my
B B A A
ideals on obsessive media

N.C.
maybe if I act like them

you'll respond to my DMs

 

Tab comments (5)
You must be logged in to join the discussion
or Register

 

Lleiti1 avatar
i usually do the solo like this
A|-----2-0-2------2-0-2----------2-0-2-------2-3-2
E|---3--------3---3-------3------3---------3---3---------
C|-2-------------2--------------4---------------4--------
G|-----------------------------------------------------------
02 Oct 2020
bakugos_thighs avatar
@Samiel tysm bro i just updated it :)
30 Aug 2020
Samiel avatar
flag for UA(ISO2) (Kyiv)
sorry, here is edit
A|-----2-0-2-----2-0-2-----2-0-2-----2-3-2--|
E|------------------------------------------|
C|------------------------------------------|
G|-0-0-------0-0-------0-0-------0-0-------0|
20 Aug 2020
Samiel avatar
flag for UA(ISO2) (Kyiv)
Author please add strumming pattern and solo
A|-0-2-0-2---0-2-0-2---0-2-0-2---0-2-3-2---|
E|-----------------------------------------|
C|-----------------------------------------|
G|---------0---------0---------0---------0-|
20 Aug 2020
ykim11 avatar
what's the strumming pattern?
03 Aug 2020
About this song

No information about this song.