Left 4 Dead Theme Uke tab by Video Game Music

0 Chords used in the song:

9.5/10
PrintAdd tab to your SongBook

Tablature / Chords (Full Song)

Font size: A- A A+

Album:  unknown
Key: unknownChords and Tablature
Hello, this is the tab for Left 4 Dead the full version,
I got sick and tired of not being able to find the tab
sheet for it online so I listened by ear to the song and
wrote down what sounded to be the most likely tabs. It
sounds pretty much exactly like the song to me except in
Uke form (obviously). I did this on a Tenor, so I don't
know what it will sound like on any of the other Ukes.
This is one of my favorite video game songs of all time,
now i hope you can enjoy impressing your friends by
playing this through your mic when you're online. It's
standard tuning by the way. ENJOY MY GAMING FRIENDS!

(PS: for the beginning slide, it sounds way better when
you slide if you just slide your finger off of the
string instead of bringing it to the 7, so slide down
while taking your finger off the string.)

A|------11-10---0--0--0--0--7--7--7--7--8--7--5--8--|
E|-2/7------------0--0--0--0--0--0--0--0--0--0--0--0|
C|--------------------------------------------------|
G|--------------------------------------------------|



A|-7--7--7--7--12--12--7--7--7--7--8--8--5--5-|
E|0--0--0--0--0--0---0--0--0--0--0--0--0--0--0|
C|--------------------------------------------|
G|--------------------------------------------|



A|-7--7--7--7--8--8--4--5--7--7--7--7-|
E|--0--0--0--0--0--0--0--0--0--0--0--0|
C|------------------------------------|
G|------------------------------------|



A|-6--4--1--3--0--0--0--0--11--10--10--10--11--10--10--10-|
E|--0--0--0--0---0--0--0--0---0---0---0---0---0---0---0--0|
C|--------------------------------------------------------|
G|--------------------------------------------------------|



A|-8--7--5--8--7--7--7--7--8--7--5--8--7--7--7--7-|
E|--0--0--0--0--0--0--0--0--0--0--0--0--0--0--0--0|
C|------------------------------------------------|
G|------------------------------------------------|



A|-6--4--1--3--0--0--0--0-| x3
E|--0--0--0--0--0--0--0--0|
C|------------------------|
G|------------------------|



A|-6-----4-----1-----3-----0-----0-----0------0----|
E|----0-----0-----0-----0-----0-----0------0------0|
C|-------------------------------------------------|
G|-------------------------------------------------|

Uke tab by , 24 Jan 2016

Tab comments (1)

Something to say?
Share your strumming patterns, chords or tips to play this tab! ;)
Filter by:
Junggak avatar
mobile flag for PH(ISO2) (Urdaneta)
my good sir loved this tab... made me feel that i need to whack some Zs :)

can you do make a tab for the one bad tank? that would be awesome ??
18 Sep 2017
Question

Top Tabs & Chords by Video Game Music, don't miss these songs!

About this song: Left 4 Dead Theme

No information about this song.

Did you cover Left 4 Dead Theme on your Ukulele? Share your work!
Submit a cover