Mii Channel Theme Uke tab by Nintendo

Ukulele Tab without chords.

9.4/10
PrintAdd tab to your SongBook

Tablature / Chords (Full Song)

Font size: A- A A+

Artist: 
Album:  unknown
Key: unknownTablature (no chords)
A|---0-4-0------------------0-4-0---7-6-5--|
E|-2--------2-------------2--------2-------|
C|------------2-2-2--1-2-------------------|
G|-----------------------------------------|


A|---4---4---4-----------------------------|
E|-4---2---4---3-2---0-0-0--0-0-0-------2--|
C|-----------------1----------------3-2-1--|
G|-----------------------------------------|


A|-0-4-0-----------7-7-7-----0-4-0-----7-5-|
E|-----------0-0-0---------2-------2-------|
C|--------2---------------2----------------|
G|-----------------------------------------|


A|-2-------2------0-----------------------|
E|---3-------3------2------1------0-0-0---|
C|-----2-1-----1------1-0----2-1----------|
G|----------------------------------------|


A|-1/2--4/5--9/12---0-1-2-1-2---0-1-2-9---|
E|----------------------------------------|
C|----------------------------------------|
G|----------------------------------------|


A|-4-2-1-2---2-3-4-3-4---2-3-4-11-6-4-----|
E|----------------------------------------|
C|----------------------------------------|
G|----------------------------------------|


A|-6-2------------------------------------|
E|---------4-4-4--------------------------|
C|----------------------------------------|
G|----------------------------------------|

⇢ Not happy with this tab? View 2 other version(s)

Uke tab by , 04 Mar 2018

Tab comments (9)

Something to say?
Share your strumming patterns, chords or tips to play this tab! ;)
Filter by:
Abigail072405 avatar
Nostalgia all the way
08 Jul 2022
Comment
Hellowhi avatar
flag for US(ISO2) (Florida )
How do I play this? Lol
16 Feb 2021
Comment
GrumpyCatLuna avatar
flag for US(ISO2) (Providence)
oh wow real nice
05 Nov 2020
Comment
halmcmahan avatar
flag for CA(ISO2) (nowhere)
gnarly
19 Aug 2020
Comment
Dohn_Jeacon avatar
noice
27 Oct 2019
Comment
lolepop avatar
realnoicemate
28 Oct 2018
Comment
Spaghetspaghet avatar
flag for US(ISO2) (Cave Junction )
UuuuHHHHH YYYEESAA UUUAAAHHHHGGHH
21 Jun 2018
Comment
WolfzenStuff avatar
flag for US(ISO2) (Dover)
Iss a boppp
28 May 2018
Comment
letsblowitup avatar
let mii sing you the song of my people
10 May 2018
Comment

About this song: Mii Channel Theme

No information about this song.

Did you cover Mii Channel Theme on your Ukulele? Share your work!
Submit a cover