White Christma Uke tab by Traditional

Ukulele Tab without chords.

Rate song!
PrintAdd tab to your SongBook

Tablature / Chords (

Font size: A- A A+

Artist: 
Album:  unknown
Key: unknownTablature (no chords)
||-2--3-2-1-2-3--4-5--7-9-10-12-10-9-7-5--5--5--5-3--|
||-3--3-3-2-3-0--3-2--0-------9----9---2--4--3--3-3--|
||-2--2-2-1-2-0--4-2--0-------9----7---2--5--4--3-3--|
||-0--0-0-0-0-0--3-2--0-------9----9---2--4--0--0-0--|

|-2--2--2-7--5--3--3-3-3-5--3--2--2--3-2-0---0--0---|
|-3--2--1-4--4--3--3-3-3-3--3--3--2--0---0-3-0--3---|
|-2--2--2-5--5--7--6-5-4-4--4--2--2--0---0---0--4---|
|-0--0--0-4--4---------0-0--0--0--0--0---0---2--2---|

|-0--1----------------------------------------------|
|-2--2----------------------------------------------|
|-3--2----------------------------------------------|
|-2--2----------------------------------------------|

|-2--3-2-1-2-3--4-5--7-9-10-12-10-9-7-5--5--5--5-3--|
|-3--3-3-2-3-0--3-2--0-------9----9---2--4--3--3-3--|
|-2--2-2-1-2-0--4-2--0-------9----7---2--5--4--3-3--|
|-0--0-0-0-0-0--3-2--0-------9----9---2--4--0--0-0--|

|-2--2--2-7--5-10--10--3-2--2--7-5--0-2-------------||
|-3--2--1-4--4--8--11--3-3--2--0-2--2-3-------------||
|-2--2--2-5--5--7--12--3-2--2--4-4--3-2-------------||
|-0--0--0-4--4--0---0--0-0--0--0-2--0-0-------------||

Uke tab by , 11 Jun 2010

Tab comments (0)

No comment yet :(
Need help, a tip to share, or simply want to talk about this song? Start the discussion!

Something to say?
Share your strumming patterns, chords or tips to play this tab! ;)

Top Tabs & Chords by Traditional, don't miss these songs!

About this song: White Christma

No information about this song.

Did you cover White Christma on your Ukulele? Share your work!
Submit a cover