Nothing But The Blood Of Jesus Uke tab by Traditional

Ukulele Tab without chords.

Add tab to your SongBook
Tablature / ChordsFont size: A- A A+

Don't know how to read a tab or a chord ? Check out these uke lessons:

Detailed guide to strumming and picking
How to read uke tabs
Reading chord diagrams

A|-3-3-3-5-7-10-7-------------------------|
E|----------------------------------------|
C|----------------------------------------|
G|----------------------------------------|



A|-3-3-3-5-7-7-5-3------------------------|
E|----------------------------------------|
C|----------------------------------------|
G|----------------------------------------|



A|-3-3-3-5-7-10-7-------------------------|
E|----------------------------------------|
C|----------------------------------------|
G|----------------------------------------|



A|-3-3-3-5-7-7----------------------------|
E|----------------------------------------|
C|----------------------------------------|
G|----------------------------------------|



A|-3-3-3-5-7-7-5--3-----------------------|
E|----------------------------------------|
C|----------------------------------------|
G|----------------------------------------|



A|-10-7-5-7-10-7-5-5-3-5-5-7--10----------|
E|----------------------------------------|
C|----------------------------------------|
G|----------------------------------------|



A|-10-7-5-7-10-7--------------------------|
E|----------------------------------------|
C|----------------------------------------|
G|----------------------------------------|



A|-3-3-3-5-7-7-5--3-----------------------|
E|----------------------------------------|
C|----------------------------------------|
G|----------------------------------------|

 

Tab comments (1)
You must be logged in to join the discussion
or Register

 

 avatar
flag for (ISO2)
sorry do not play the 4th tab
05 Oct 2014
About this song

No information about this song.