Killing Me Softly Uke tab by Traditional

Ukulele Tab without chords.

9.8/10
PrintAdd tab to your SongBook

Tablature / Chords (

Font size: A- A A+

Artist: 
Album:  unknown
Key: unknownTablature (no chords)
||-0---------0--------------0----------------0---------0----0--2--|
||-1--0-1-3--3--3----3---0----3--1--0--1-----1--0-1-3--3--3-------|
||-2---------2----2------0----------0----0---2---------2----------|
||-2---------0-----------0----------2--------2---------0----------|

^ ^
|-2-3--2-0----0---0--3-0--------------------------2----0--2------|
|---0-------3-----1-------1-0----0--1--0----------0--------------|
|---0-------------2---------2--2-------0----------2--------------|
|---2-------------2---------0----------0--0-0--0--1--1-----------|

|-3-3-3-3--0----------2-2-2-2--------------------0-3-2-----5-5-5-|
|-0----------0-3--1---3--------3----0---0-0-0-0------2-----------|
|-0------------2------2----------2--0---0------------2-----------|
|-2------------2------0-------------0---2------------2--2--------|

|--3--2----2--0--0-0-3-0-----------------------------------------||
|--3-------1-----------0--3---0-3--1--1-1-0--0-------------0-----||
|--2-------0-----------0--------2------------2---2----2-2--1-----||
|--------0-2-----------0--------2------------3-------------2-----||

Uke tab by , 26 May 2010

Tab comments (0)

No comment yet :(
Need help, a tip to share, or simply want to talk about this song? Start the discussion!

Something to say?
Share your strumming patterns, chords or tips to play this tab! ;)

Top Tabs & Chords by Traditional, don't miss these songs!

About this song: Killing Me Softly

No information about this song.

Did you cover Killing Me Softly on your Ukulele? Share your work!
Submit a cover